Login or Register to remove this ad. | Advertise Here

New Wave Bossa Nova (Legend of Zelda: Majora's Mask) Bass Tab

Submitted: Sep 30, 2007 by archard (Last updated: May 07, 2008)

5
Average: 5 (2 votes)
Download | Listen
Game: Legend of Zelda: Majora's Mask
Composer(s): Koji Kondo, Toru Minegishi
Style: Transcription
Series: Legend of Zelda

AutoScroll: Slow | Medium | Fast
The Legend of Zelda: Majora's Mask
Composed by Koji Kondo
Tabbed by Richard Schaefer (richard@gametabs.net)
5/5/07

G-----5-5-------5-5-------4-4-------4-4-----
D--3-------3-3-------3-2-------2-2-------2--
A-------------------------------------------
E------------------------------------------- x2

G-----3-3---8--------------2-2-------------------------
D--1------------8-8-----0----------6-6-----5-5---------
A-------------------------------4-------3-------3---3--
E------------------------------------------------------