Login or Register to remove this ad. | Advertise Here

Music Box House (Legend of Zelda: Majora's Mask) Guitar Tab

Submitted: Sep 30, 2007 by archard

4.90909
Average: 4.9 (11 votes)
Download | Listen
Game: Legend of Zelda: Majora's Mask
Composer(s): Koji Kondo, Toru Minegishi
Style: Transcription
Series: Legend of Zelda

AutoScroll: Slow | Medium | Fast
Music Box House
The Legend of Zelda: Majora's Mask
Composed by Koji Kondo
Tabbed by Richard Schaefer (richard@gametabs.net)
8/3/06

e--3---2-3-5--3-2-3---0-----3---2-3-5--3-0-1
B-------------------------------------------
G-------------------------------------------
D-------------------------------------------
A-------------------------------------------
E-------------------------------------------

e--1---0-1-3--1-0-1---------1---0-1-7--5-3-0
B---------------------3---------------------
G-------------------------------------------
D-------------------------------------------
A-------------------------------------------
E-------------------------------------------

e--3---2-3-5--3-2-3---0-----8-7-8-10-8-6-5
B-----------------------------------------
G-----------------------------------------
D-----------------------------------------
A-----------------------------------------
E-----------------------------------------

e--5---4-5-8-7-5-3---2-3-7-5-3-1---0-1-3-1----
B------------------------------------------3-1
G---------------------------------------------
D---------------------------------------------
A---------------------------------------------
E---------------------------------------------

7 comments on Music Box House

I remember playing this part

I remember playing this part of the game, I freaked. :D Good job, however. ^^

Holy :P This part rly freak

Holy :P This part rly freak me out xD Haha i was like 8 years old and i cry for sooo long :P Haha Good job on the tabs dude =) Theyre awesome ^^

Haha. I remember being

Haha. I remember being freaked out too, but it was my favorite song in the game, and I was really upset when it wasn't on the soundtrack. ^ ^ Great job!

Wow, awesome! Sounds

Wow, awesome! Sounds perfect, I love this song!

I love this song , i like it

I love this song , i like it to play ^^

Just Great

Just Great

Awesome tabs

5

I played this game when i was 7 y/o and i screamed a lot like a chicken xD when i was in the house xD