Login or Register to remove this ad. | Advertise Here

Milk Bar (Legend of Zelda: Majora's Mask) Guitar Tab

Submitted: Sep 30, 2007 by archard

4.857145
Average: 4.9 (7 votes)
Download | Listen
Game: Legend of Zelda: Majora's Mask
Composer(s): Koji Kondo, Toru Minegishi
Style: Transcription
Series: Legend of Zelda

AutoScroll: Slow | Medium | Fast
Milk Bar

The Legend of Zelda: Majora's Mask

Composed by Koji Kondo

Tabbed by Richard Schaefer (richard@gametabs.net)

7/21/06

e----3-5-6-5---5-3-5-3-1---------1--3---
B--4-----------------------3-1-3-------3
G---------------------------------------
D---------------------------------------
A---------------------------------------
E---------------------------------------

e----3-5-6-5---5-3-5-3-1---6
B--4------------------------
G---------------------------
D---------------------------
A---------------------------
E---------------------------

e----3-5-6-5---5-3-5-3-1---------1--3---
B--4-----------------------3-1-3-------3
G---------------------------------------
D---------------------------------------
A---------------------------------------
E---------------------------------------

e----3-5-6-5---5-3-5-3-1---6-5-5-6-5-5-6
B--4------------------------------------
G---------------------------------------
D---------------------------------------
A---------------------------------------
E---------------------------------------

e-----------------------------
B----1-2-3-----3-3---3-1------
G--3-------2-2-----------3-2-3
D-----------------------------
A-----------------------------
E-----------------------------

e-----------------------------
B--------1-----1-1---1--------
G--0-2-3---0-0---------3-2-0-2
D-----------------------------
A-----------------------------
E-----------------------------

e-------------------------------------
B----1-2-3-----3-3---3-1---------1---3
G--3-------2-2-----------3-2-3--------
D-------------------------------------
A-------------------------------------
E-------------------------------------

e-------------------------
B--4---4-4-3-1---------1-3
G--------------2---2-3----
D-------------------------
A-------------------------
E-------------------------

Repeat

5 comments on Milk Bar

Might want to fix your MIDI

Might want to fix your MIDI link.

Thanks for pointing that

Thanks for pointing that out.

Very easy song =)

Very easy song =)

e----------------------------

e-----------------------------
B--------1-----1-1---1--------
G--0-2-3---0-0---------3-2-0-2
D-----------------------------
A-----------------------------
E-----------------------------

I do believe it's this:

e-----------------------------
B-----------------------------
G-0-2-3-5-0-0--5-5--5--3-2-0-2
D-----------------------------
A-----------------------------
E-----------------------------

I know it's only one note off, and this is a great tab! Keep up the good work, man!

Very good tab! Love the

5

Very good tab! Love the song, it's catchy!

-Sindrings