Login or Register to remove this ad. | Advertise Here

Elegy of Emptiness (Legend of Zelda: Majora's Mask) Guitar Tab

Submitted: Feb 03, 2008 by Enterim (Last updated: Feb 03, 2008)

4.6
Average: 4.6 (5 votes)
Download | Listen
Game: Legend of Zelda: Majora's Mask
Composer(s): Koji Kondo, Toru Minegishi
Style: 2 or more instruments, Arrangement
Series: Legend of Zelda

AutoScroll: Slow | Medium | Fast
ELEGY OF EMPTINESS
COMPOSED BY KOJI KONDO
TABBED BY ENTERIM
GODDAMN BASS CLEF

GUITAR I

     H     Q   Q      E  E  Q   H        H     Q   Q      E  E  Q   H     
e||----------------|------------------|----------------|------------------|
B||----------------|------------------|--------12------|--------15--12----|
G||----------------|------------------|--14--------14--|-----14-----------|
D||----------------|--------12--------|----------------|--15--------------|
A||--12----14--12--|-----12-----14----|----------------|------------------|
E||----------------|--13--------------|----------------|------------------|

     H     Q   Q      W              H     Q   Q      H     H     
e||----------------|--------------|----------------|--------------|
B||----------------|--------------|----------------|--------------|
G||----------------|--------------|----------------|--------------|
D||----------------|--------------|----------------|--------------|
A||--12----14--12--|--------------|--12----14--12--|--------11----|
E||----------------|--14----------|----------------|--14----------|

     H     H        W              Q   H.         
e||--------------|--------------|---------------|
B||--------------|--------------|---------------|
G||--12----11----|--13----------|--L------------|
D||--------------|--------------|---------------|
A||--12----L-----|--L-----------|--L------------|
E||--------------|--------------|---------------|

GUITAR II

     W              H    E.  S Q     W              H    E.  S Q
e||--------------|-------------7--|--------------|-------------7--|
B||--------------|-----------0----|--------------|-----------0----|
G||--------------|----------------|--------------|----------------|
D||--------------|----------------|--------------|----------------|
A||--------------|----------------|--------------|----------------|
E||--------------|----------------|--------------|----------------|

     W              E E E E E E E E     W              E E E E E E E E  
e||--------------|--7----------------|--------------|--7----------------|
B||--------------|----7--------------|--------------|----7--------------|
G||--------------|------8------------|--------------|------8------------|
D||--------------|--------9-------9--|--------------|--------9-------9--|
A||--------------|------------6-9----|--------------|------------6-9----|
E||--------------|----------8--------|--------------|----------8--------|

     E E E E E E E E     E E E E E E E E     E E  H.
e||--0----------------|----------------0--|----10----------|
B||----0-----0--------|--------------0----|--9-12----------|
G||------0-----0------|-------------------|----------------|
D||-------------------|------------6------|----------------|
A||--------7-----7----|------7---7--------|----------------|
E||----------------8--|----8---8----------|----------------|

GUITAR III

     H    H         H    H         H    H         H    H       
e||--------------|--------------|--------------|---------------|
B||--------------|--------------|--------------|---------------|
G||--------------|--------------|--------------|---------------|
D||--2-----3-----|--0-----------|--2----3------|--0------------|
A||--2-----1-----|-------4------|--2----1------|-------4-------|
E||--------------|--4----3------|--------------|--4----3-------|

     W              W              W              W            
e||--------------|--------------|--------------|---------------|
B||--------------|--------------|--------------|---------------|
G||--------------|--------------|--------------|---------------|
D||--2-----------|--1-----------|--2-----------|--1------------|
A||--2-----------|--2-----------|--2-----------|--2------------|
E||--------------|--------------|--------------|---------------|

     W              W              Q  H.         
e||--------------|--------------|--------------|
B||--------------|--------------|--------------|
G||--------------|--------------|--------------|
D||--------------|--------------|--------------|
A||--2-----------|--L-----------|--2-----------|
E||--0-----------|--L-----------|--0-----------|

5 comments on Elegy of Emptiness

hmm i dont recall this song,

hmm i dont recall this song, the midi appears to be broken/ non existant =S

The Elegy of Emptiness

The Elegy of Emptiness creates a statue of Link (or Deku/Goron/Zora Link) upon playing it.

http://www.vgmusic.com/music/console/nintendo/n64/MMElegyComplete.mid

It'll say I'm hotlinking, so you have to hit the LISTEN HERE PLZ button.

its not bad, good tab mate

4

its not bad, good tab mate =]

"ELEGY OF EMPTINESS COMPOSED

"ELEGY OF EMPTINESS
COMPOSED BY KOJI KONDO
TABBED BY ENTERIM
GODDAMN BASS CLEF"

"GODDAMN BASS CLEF"

You shouldn't have done that.

You shouldn't have done that.