Login or Register to remove this ad. | Advertise Here

Clock Town (Legend of Zelda: Majora's Mask) Guitar Tab

Submitted: Sep 30, 2007 by archard

4.5
Average: 4.5 (18 votes)
Download | Listen
Game: Legend of Zelda: Majora's Mask
Composer(s): Koji Kondo, Toru Minegishi
Style: Transcription
Series: Legend of Zelda

AutoScroll: Slow | Medium | Fast
Clock Town

The Legend of Zelda: Majora's Mask

Composed by Koji Kondo

Tabbed by Richard Schaefer (richard@gametabs.net)

7/21/06

e-----10-9-7-5-7---3---5--0-5-3-0-3---5-2
B----------------------------------------
G--7-------------------------------------
D----------------------------------------
A----------------------------------------
E----------------------------------------

e-----10-9-7-5-7---3---5-3-0-3-2--
B--------------------------------3
G--7------------------------------
D---------------------------------
A---------------------------------
E---------------------------------

e-----10-9-7-5-7---3---5--0-5-3-0-3---5-2
B----------------------------------------
G--7-------------------------------------
D----------------------------------------
A----------------------------------------
E----------------------------------------

e-----10-9-7-5-7---3---5-3-0-2-3-0--
B----------------------------------3
G--7--------------------------------
D-----------------------------------
A-----------------------------------
E-----------------------------------

e--------------0-----3-2-3-2-----0----
B--3---3-3-2-3-----------------3------
G----------------2-------------------2
D-------------------------------------
A-------------------------------------
E-------------------------------------

e--------------0-----3-2-3-2------
B--3---3-3-2-3-----------------2-3
G----------------2----------------
D---------------------------------
A---------------------------------
E---------------------------------

e--------------0-----3-2-3-2-----0----
B--3---3-3-2-3-----------------3---2--
G----------------2-------------------2
D-------------------------------------
A-------------------------------------
E-------------------------------------

e--------------0-----3-2-3-2------
B--3---3-3-2-3-----------------2-3
G----------------2----------------
D---------------------------------
A---------------------------------
E---------------------------------

19 comments on Clock Town

This is awesome!! Everything

This is awesome!! Everything by archard is so cool! I love you archard!!!

I second that comment =P

I second that comment =P

. . . . . very very good !!!

.
.
.
.
.
very very good !!!

Awesome dude!

Awesome dude!

arhcard is the best tabber

arhcard is the best tabber ever i agree

I love Majora's Mask, and

I love Majora's Mask, and this is awesome.

Awesome! The only thing it's

Awesome! The only thing it's missing is a little interlude that I think goes like this:

e----------------------------------------4/5--4/5~~-
B---------------------------------------------------
G---------------------------------------------------
D-----------------------------0---------------------
A--2-0-------2-0---------2-0----4--4-3-2------------
E-------3-2------3-2--0-----------------------------

wonderful. absolutely

5

wonderful. absolutely wonderful

Now all we need is the Deku

Now all we need is the Deku Palace theme

pls get Deku palace

pls get Deku palace

i made one chang on this and

i made one chang on this and made it sound a little better

e-----10-9-7-5-7---3---5-0-5-3-2---
B--------------------------------2-
G--7-------------------------------
D----------------------------------
A----------------------------------
E----------------------------------

Actually (Without being

Actually (Without being rude) This is a twisted way to play it... also, you missed a few notes (not that many)

But despite that this is a really good tab ^^ keep it up!

I'm gonna post my version enyways

archard is the only reason i

5

archard is the only reason i get on this website

I dont understand how 2 play it

i dont understand how 2 play it right could some one help me??

somethings missing....

5

there is something missing ....oh yeah the intro

E||-----------------------|----------------------||
B||-----------------------|----------------------||
G||*----------------------|---------------------*||
D||*----------------------|---------------------*||
A||-----------------------|----------------------||
E||---10--------9----9----|--7--------9----9-----||

completely awesome!! just

5

completely awesome!! just love it

Addition

Adding these extra fours to lines 5-8? Perhaps this is for day 2 though.

e--------------0------3-2-3-2-----0----
B--3---3-3-2-3------------------3------
G---------------4-2-----------------4-2-
D------------------------------------------
A------------------------------------------
E------------------------------------------

Sounds perfect!

Sounds perfect!

LOVE U ARCHARD

5

Archard you're god