Login or Register to remove this ad. | Advertise Here

Bremen March (Legend of Zelda: Majora's Mask) Guitar Tab

Submitted: Sep 30, 2007 by archard

4.75
Average: 4.8 (8 votes)
Download | Listen
Game: Legend of Zelda: Majora's Mask
Composer(s): Koji Kondo, Toru Minegishi
Style: Transcription
Series: Legend of Zelda

AutoScroll: Slow | Medium | Fast
Bremen March
The Legend of Zelda: Majora's Mask
Composed by Koji Kondo
Tabbed by Richard Schaefer (richard@gametabs.net)
8/16/06

e--5---5-8-13-12-12-10-9-10-----3-0-3-6-12-10-10-7-10-8---
B----6----------------------------------------------------
G---------------------------------------------------------
D---------------------------------------------------------
A---------------------------------------------------------
E---------------------------------------------------------

e--5---5-8-17-15-15-13-12-10-----12-10-8-6-5-3-1
B----6------------------------------------------
G-----------------------------------------------
D-----------------------------------------------
A-----------------------------------------------
E-----------------------------------------------

5 comments on Bremen March

Cool!

Cool!

Sweet!

Sweet!

awesome

awesome

omg, now theres all kinds of

omg, now theres all kinds of animals running afte me!

I don't know why but I've

I don't know why but I've always loved this song! By the way great tab!