Login or Register to remove this ad. | Advertise Here

Bass Practice (Legend of Zelda: Majora's Mask) Bass Tab

Submitted: Sep 30, 2007 by archard (Last updated: May 07, 2008)

2.714285
Average: 2.7 (7 votes)
Download | Listen
Game: Legend of Zelda: Majora's Mask
Composer(s): Koji Kondo, Toru Minegishi
Style: Transcription
Series: Legend of Zelda

AutoScroll: Slow | Medium | Fast
Bass Practice
The Legend of Zelda: Majora's Mask
Composed by Koji Kondo
Tabbed by Ky

Just like the Piano Practice is the game over tune from
Zelda NES, the Bass Practice is the cave theme.

G-------------------------------------------
D-------------------------------------------
A------0---4---3--------------0----4-3------
E--3---------------4------2--------------4--

G----------------------------------
D----------------------------------
A------------5---4------------4--3-
E-3/2/3---3--------2/1/2---2-------

G-----------------------7-10-7-------------
D-----------6---6-9-6-9--------9-6-9-6-----
A-4-5-8-5-8---8------------------------8-5-
E------------------------------------------

3 comments on Bass Practice

Cool

Cool

doesnt sound right

doesnt sound right

It's correct

The tablature is correct,it's just that the bass is normally covered by the sound of around 10-15 other instruments.