Login or Register to remove this ad. | Advertise Here

Astral Observatory (Legend of Zelda: Majora's Mask) Guitar Tab

Submitted: Sep 30, 2007 by archard

4.666665
Average: 4.7 (6 votes)
Download | Listen
Game: Legend of Zelda: Majora's Mask
Composer(s): Koji Kondo, Toru Minegishi
Style: Transcription
Series: Legend of Zelda

AutoScroll: Slow | Medium | Fast
Astral Observatory
The Legend of Zelda: Majora's Mask
Composed by Koji Kondo
Tabbed by Richard Schaefer (Richard Schaefer)
Updated 9/2/06

e--5---5-----5---5-----5---5-----5----------5---3-----5---5-----5----------
B--6---6-----6---6-----6---6-----6---8------3---3-----3---3---------8-----6
G------------------------------------10-------------------------6---6-----7
D-------------------------------------------------------------------------7
A--------------------------------------------------------------------------
E--------------------------------------------------------------------------

e--3---3-----1---1-----1---1-----0---0
B--3---3-----3---3--------------------
G----------------------3---3-----3---3
D-------------------------------------
A-------------------------------------
E-------------------------------------

3 comments on Astral Observatory

Good job man. :D

Good job man. :D

dude...amazing lol

dude...amazing lol

probably the first game tab I

probably the first game tab I learnt.
lovin it :)
your my favourite tabber btw :P