Login or Register to remove this ad. | Advertise Here

Final Bowser Theme (Super Mario 64) Guitar Tab

Submitted: Sep 30, 2007 by ronito (Last updated: Sep 15, 2009)

3
Average: 3 (4 votes)
Download | Listen
Game: Super Mario 64
Composer(s): Koji Kondo
Style: Arrangement, Fingerstyle
Series: Mario

This song is also called Kooprice #64

AutoScroll: Slow | Medium | Fast
MusicXML Part
     W                   E  E  E  E  H           E  E   E  E  S S E  Q
E||-------------------|--------5--4--L--------|--0------1--4--L-----------|
B||-------------------|-----3-----------------|--3-----10--5--L-----------|
G||-------------------|--------2--1--L--------|------------7--------------|
D||-------------------|-----0--3--2--L--------|-----0---------------------|
A||-------------------|--0--------------------|--0------------------------|
E||-------------------|-----------------------|---------------------------|

  W                   W                   E  E  E  E  H
--L----------------|-------------------|--------5--4--L--------|
--L----------------|-------------------|-----3-----------------|
-------------------|-------------------|--------2--1--L--------|
-------------------|-------------------|-----0--3--2--L--------|
-------------------|-------------------|--0--------------------|
-------------------|-------------------|-----------------------|

  E  E  E  E  S S E  Q       Q    Q    H           H        E  E
--0-----5--4--L-----------|--7------------------|-----------------|
--3-----6--5--L-----------|---------------------|--------------3--|
-----------7--------------|---------------------|-----------------|
-----0--------------------|---------------------|--------------0--|
--0-----------------------|---------------------|-----------0-----|
--------------------------|---------------------|-----------------|

  E  E  Q    E  E  E  E     S S S S S S S S S S S S S S S S
--5--4--L----------5--4--|--5-----5-4-----3-1-----1-0-----0-|
--6--5----------3--6-----|------3-------3-------3-------2---|
--2--6--L----2-----------|----2-------2-------2-------0-----|
-------------------------|--0-------------------------------|
--0----------------------|----------------------------------|
-------------------------|----------------------------------|

  S S S S S S S S S S S S S S S S    S S S S S S S S  S  S  S  S  S  S  S  S
--------------------------1-----1-|----------0-----0-------10-------10--5----|
--3-----3-2-------------3-----3---|--------2-----2------10----10-------10----|
------2-------0-3-2---2-----2-----|--3-0-3-----3-----10----------10-------10-|
--0-3-------2-------3-------------|------------------------------------------|
----------------------------------|-------------------0----------------------|
--0-------2-------3---------------|--5---------------------------------------|

  S S S S S S S S S S S S S S S S    E  E  E  E  H
--0---9---0-9---0-----5-----5-----|-----3--1--5--3--------|
----8---8-----8---3-6---6-3---6-3-|-----2--3-----2--------|
----------------------------------|-----2--3--2--2--------|
----------------------------------|-----------------------|
----------------------------------|--4--0--1--0--0--------|
--5---------------3---------------|-----------------------|

  S  S S  S  S  S S S S S S S S S S S    S S S S S S S S S S S S S S E
----10-9-10-11-10-9-4-5-1-0-1-3-1-0---|---------------------------------|
------------------------------------2-|--3------------------------------|
-----7-6--7--8--7-6-1-2-------0-------|----2-1-2-3-2-1------------------|
------------------------3-2-3---3-2---|----------------2-3-0---0-1-0----|
------------------------------------4-|----------------------4-------4--|
--0-----------------------------------|------------------3--------------|

  E  E  E  E  E  E  E  E     S S S S S S S S S S S S S S S S
--------------------------|--------5-4-----3-1-----1-0-----0-|
-----------------------2--|--3---3-------3-------3-------2---|
-----------0-----3--2-----|--2-2-------2-------2-------0-----|
--0--3--2--2--3--3-----2--|----------------------------------|
-----------------1--0--4--|----------------------------------|
-----3-----5--3--3--5-----|----------------------------------|

  S S S S S S S S S S S S S S S S    S S S S S S S S S S  S S S  S S S
--------------------------1-----1-|--0-------0---0-3-1-5-10-5-1-10-5-1-|
--3-----3-2-------------3-----3---|--------2---2-----------------------|
------2-------0-3-2---2-----2-----|----0-3-----------------------------|
----3-------2-------3-------------|------------------------------------|
----------------------------------|------------------------------------|
----------------------------------|------------------------------------|

  S S S S S S S S S S S S S S S S    S S S S S S S S S S S S S S S S
--0-3-9-3-0-9-3-0---------1-------|----------------------------------|
----------------------3-------3---|--4---3---4---3-------2-------2---|
--------------------2---2---2---2-|----0---2---2---2---0---0---0---0-|
------------------0---------------|--1---0-----------2-------2-------|
----------------------------------|----------4-------0---------------|
----------------------------------|--------------4-------------------|

  S S S S S S S S S S S S S S S S    S S S S S S S S S S S S S S S S
----------------------------------|--------------------------1-------|
------2-------2-------0---3---0---|------0---2-----------3-------3---|
----0---0---0---0---1---1---1---1-|----1---1---0-3-0---2---2---2---2-|
--2-------2-------0---------------|--0---------------3---------------|
--0-------------------------------|--------------4-------------------|
------------------4---------------|--6---6---5-------0---------------|

  S S S S S S S S S S S S S S S S    S S E  S S S S S S S S S S S S
----------1---1-5-----1---5---1---|--5---1--5---1-------0---3---0---|
------3-----3-------3---3---3---3-|--4-3-3--2-3---3---2---2---2---2-|
----2---2-------------------------|-------------1---2---------------|
--3---------------0---------------|--6---0--------------------------|
----------------------------------|---------4-------0---------------|
----------------------------------|-------------6-------------------|

  S S S S S S S S S S S S S S S S    S S S S S S S S S S S S S S S S
------0---3---0-------1---4---1---|------1---3-----------1---5-----1-|
----2---2---2---2-0-3---3---3---3-|--0-3---3-----2-----3---3-----3---|
--2-------------------------------|--2-------0-3---3-2---------2-----|
------------------6---------------|------------------3---------------|
--0-------------------------------|--0-----------4-------------------|
------------------3---------------|--3---6---5-------3---------------|

  E  E  E  E  S S S S S S S S    S S S S S S S S S S S S S S S S
--5--5--5--5------------------|----------------------------------|
--6--6--6--6------------------|--------------------------3-3-----|
--7--7--7--7----------0-0-3-3-|--2-2-----0-0-3-3---2-2-2-----2-2-|
----------------3-3-3-2-2-----|--0-0-3-3-2-2-------3-3-3-3-3-3-3-|
--8-------------0-0-0-1-1-4-4-|--0-0-0-0-1-1-4-4---5-5-5-5-5-5-5-|
--------------------------5-5-|--------------5-5-----------------|

  S S S S S S S S S S S S S S S S    S S S S S S S S S S S S S S S S
--6-6-3-3-9-9-6-6-------5-4-----3-|--1-----1-0-----0-----------------|
--5-5-2-2-8-8-5-5-----3-------3---|------3-------2---3-----3-2-------|
----------0-0-0-0---2-------2-----|----2-------0---------2-------0-3-|
------2-2---------0---------------|--0-----------------3-------2-----|
--7-7-----------------------------|----------------------------------|
----------------------------------|------------------0---------------|

  S S S S S S S S S S S S S S S S    S S  S S S  S S S S S S S S S S S
----------1-----1---------0-----0-|--1-5-10-5-1-10-5-1-0-3-9-3-0-9-3-0-|
--------3-----3---------2-----2---|------------------------------------|
--2---2-----2-----3-0-3-----3-----|------------------------------------|
----3-----------------------------|------------------------------------|
----------------------------------|--0---------------------------------|
--3---------------5---------------|--------------------5---------------|

  S S S S S S S S E  E  E  E     H        S  S S  S  S  S S S
----1-5-1---5-1------3--1--5--|--3----------10-9-10-11-10-9-4-|
--3-------3-----3-2--2--3-----|--2----------------------------|
---------------------2--3--2--|--2-----------7-6--7--8--7-6-1-|
------------------------------|-------------------------------|
------------------------1-----|--0----------------------------|
--3------------------5-----6--|-------------------------------|

  S S S S S S S S S S S S S S S S    S S S S S S E  E  E  E  E
--5-1-0-1-3-1-0-------------------|-----------------------------|
----------------2-3---------------|-----------------------------|
--2-------0-----------------------|--------------------------0--|
----3-2-3---3-2---0---------------|--3-0---0-1-0----0--3--2--2--|
----------------4---0---0-1-0-----|------4-------4--------4-----|
----------------------6-------6-2-|--------------------3-----5--|

  E  E  E  E  S S S S S S S S    S S S S S S S S S S S S S S S S
--------------------5-4-----3-|--1-----1-0-----0-----------------|
-----------2--3---3-------3---|------3-------2---3-----3-2-------|
-----3--2-----2-2-------2-----|----2-------0---------2-------0-3-|
--3--------2------------------|--------------------3-------2-----|
-----1--0--4------------------|----------------------------------|
--3--3--5---------------------|----------------------------------|

  S S S S S S S S S S S S S S S S    S S  S S S  S S S S S S S S S S S
----------1-----1-0-------0---0-3-|--1-5-10-5-1-10-5-1-0-3-9-3-0-9-3-0-|
--------3-----3---------2---2-----|------------------------------------|
--2---2-----2-------0-3-----------|------------------------------------|
----3-----------------------------|------------------------------------|
----------------------------------|------------------------------------|
----------------------------------|------------------------------------|

  S S S S S S S S S S S S S S S S    S S S S S S S S S S S S S S S S
----------1-----------------------|----------------------------------|
------3-------3---4---3---4---3---|------2-------2-------2-------2---|
----2---2---2---2---0---2---2---2-|----0---0---0---0---0---0---0---0-|
--3---------------1---0-----------|--2-------2-------2-------2-------|
--5-----------------------4-------|--0-------------------------------|
------------------------------6---|----------------------------------|

  S S S S S S S S S S S S S S S S    S S S S S S S S S S S S S S S S
----------------------------------|----------1---------------1---1-5-|
------0---3---0-------0---2-------|------3-------3-------3-----3-----|
----1---1---1---1---1---1---0-3-0-|----2---2---2---2---2---2---------|
--0---------------0---------------|--3---------------3---------------|
------------------0-----------4---|----------------------------------|
--6-------------------6---5-------|--0-------------------------------|

  S S S S S S S S S S E  S S S S    S S S S S S S S S S S S S S S S
------1---5---1---5---1--5---1---|------0---3---0-------0---3---0---|
--3-3---3---3---3-4-3-3--2-3---3-|----2---2---2---2---2---2---2---2-|
-----------------------------1---|--2---------------2---------------|
--0---------------1---0----------|----------------------------------|
-------------------------4-------|--0-------------------------------|
-----------------------------4---|----------------------------------|

  S S S S S S S S S S S S S S S S    S S S S S S S S E  E  E  E
------1---4---1-------1---3-------|------1---5-----1-5--5--5--5--|
--0-3---3---3---3-0-3---3-----2---|----3---3-----3---6--6--6--6--|
--1---------------2-------0-3---3-|--2---------2-----7--7--7--7--|
----------------------------------|--3---------------------------|
------------------0-----------4---|------------------------------|
--3-------------------6---5-------|------------------------------|

  S S S S S S S S S S S S S S S S    S S S S S S S S S S S S S S S S
----------------------------------|------------------6-6-3-3-9-9-6-6-|
----------------------------------|----------3-3-----5-5-2-2-8-8-5-5-|
----------0-0-3-3-2-2-----0-0-3-3-|----2-2-2-----2-2-------0-0-0-0-0-|
----3-3-3-2-2-----0-0-3-3-2-2-----|----3-3-3-3-3-3-3-----2-2---------|
----0-0-0-1-1-4-4-0-0-0-0-1-1-4-4-|----5-5-5-5-5-5-5-7-7-------------|
--------------5-5-------------5-5-|----------------------------------|

  S S S S S S S S S S S S S S S S    S S S S S S S S S S S S S S S S
--5-----5-4-----3-1-----1-0-----0-|--------------------------1-----1-|
------3-------3-------3-------2---|--3-----3-2-------------3-----3---|
----2-------2-------2-------0-----|------2-------0-3-2---2-----2-----|
--0-------------------------------|--0-3-------2-------3-------------|
----------------------------------|----------------------------------|
--0-------------------------------|----------2-------3---------------|

  S S S S S S S S  S  S  S  S  S  S  S  S    S S S S S S S S S S S S S S S S
----------0-----0-------10-------10-------|--0---9---0-9---0---1-5-1---5-1---|
--------2-----2------10----10-------10----|----8---8-----8---3-------3-----3-|
--3-0-3-----3-----10----------10-------10-|----------------------------------|
------------------------------------------|----------------------------------|
-------------------0----------------------|----------------------------------|
--5---------------------------------------|--5---------------3---------------|

  E  E  E  E  H           S  S S  S  S  S S S S S S S S S S S
-----3--1--5--3--------|----10-9-10-11-10-9-4-5-1-0-1-3-1-0---|
-----2--3-----2--------|------------------------------------2-|
-----2--3--2--2--------|-----7-6--7--8--6-7-1-2-------0-------|
--------0--------------|------------------------3-2-3---3-2---|
--4--0--1--0--0--------|------------------------------------4-|
-----------------------|--0-----------------------------------|

  S S S S S S S S S S S S S S E     H        H
---------------------------------|--------------------||
--3------------------------------|--------------------||
----2-1-2-3-2-1------------------|--------------------||
----------------2-3-0---0-1-0----|--0-----------------||
----------------------4-------4--|--------------------||
------------------3--------------|--0-----------------||

Duration Legend
---------------
W - whole
H - half
Q - quarter
E - 8th
S - 16th
T - 32nd
X - 64th
. - note dotted
|-n-|  - n-tuplets

8 comments on Final Bowser Theme

You might want to check out

You might want to check out Kabuki's arrangment of this theme. It's more complete and a lot more playable.

Hey dude when it says

Hey dude when it says something like
E|---1
B|--10

How are we supposed to play it? Do I play the 1 part on the G string instead to make it easier? Sorry, for the dumb questions, but I just think it's impossible to reach that far.

Like I said the PDF's more

Like I said the PDF's more correct, it says play it as E-5 B-6. I did this tab before I learned how to edit the tab the program output. So there are plenty of mistakes.

I love this tab so much I'm

5

I love this tab so much I'm going to give it five stars!!!

There's a PDF.

There's a PDF.

Yeah really, just because

Yeah really, just because the ascii tab is a little squished is no reason to rate this a 1.

fixed ;)

fixed ;)

finally a real tab on this

5

finally a real tab on this website, the rest were all for novices and i had been desperately searching for something like this. great work.