Login or Register to remove this ad. | Advertise Here

Zelda's Lullaby (Legend of Zelda: Ocarina of Time) Guitar Tab

Submitted: Oct 05, 2008 by sirorion4000 (Last updated: Nov 14, 2009)

4.42857
Average: 4.4 (7 votes)
Download | Listen
Game: Legend of Zelda: Ocarina of Time
Composer(s): Koji Kondo
Style: Arrangement, Fingerstyle
Series: Legend of Zelda

AutoScroll: Slow | Medium | Fast
The legend of zelda      standard tuning (played slow)
music by koji kondo
title Zelda's lullaby
tabbed by Me!! (^^)y

-------0--------2---------0--------2-----------5--------3---------3----2-0-2---------------
-------------------------------------------3---------2---------2---------------------------
----2--------2---------2--------2----------------------------------------------------------
---------------------------------------------------------------------------0---------------
-3--------3--------3---------3---------2----------1--------0-------------------------------
-------------------------------------------------------------------------------------------
{
--0-----0-3--------------0-----0-3----------0-----0-3--10-----10--8--------------------------
@-----1-----3-----3--1-3-----1-----3-----3------1-----------8-------8-----8--6-5-------------
----0-----------0----------0-----------0------0-----------9-------------5---------7----------
--------------0----------------------0------------------0-------------5-----------7----------
@-3------------------0-2-3------------------3-----------------------7-------------5----------
------------3----------------------3---------------------------------------------------------
[
-0-----0-3--------------0-----0-3----------0-----0-3--10-----10--8--------------------------
-----1-----3-----3--1-3-----1-----3-----3------1-----------8-------8-----8--6-5-------------
---0-----------0----------0-----------0------0-----------9-------------5---------7----------
-------------0----------------------0------------------0-------------5-----------7----------
-3------------------0-2-3------------------3-----------------------7-------------5----------
-----------3----------------------3---------------------------------------------------------
[
-10-----10--8-7-8-7----------8-----8--7-5-7-5-----10-----10-8-7-8-7----10----15-------------
------8-------------8-----8------5------------6--------8------------8----------------------@
----9-------------------5------5--------------7------9--------------------------------------
--0-------------------5-----------------------7----0----------------------------------------
--------------------7--------7----------------5--------------------------------------------@
--------------------------------------------------------------------------------------------
[

note
the @ signs are the repeat sign, repeat once though lol have fun  (^^)y



    @

7 comments on Zelda's Lullaby

Beautiful

5

Beautiful <3... It's so simple and moving, nice job!

thank you kindly

thank you kindly

awesomeness

awesomeness

Excellent. The transitions

5

Excellent. The transitions are smooth.. not so choppy.. its a lullaby and you just made it better. Good job bro.

Great job, but it sounds

5

Great job, but it sounds better on the very last part if instead of using 10----15, you use 8----15

Dont mean to Critisize

The last chord where its
6
7
7
5

it should be

5
7
7
5

The beginning should

The beginning should be

-------0--------2---------0--------2-
-------------------------------------
----0--------2---------0--------2----
-------------------------------------
-3--------3--------3---------3-------
-------------------------------------