Login or Register to remove this ad. | Advertise Here

Sonata of Awakening (Legend of Zelda: Majora's Mask) Guitar Tab

Submitted: Aug 19, 2008 by hslesperance (Last updated: Feb 22, 2011)

5
Average: 5 (2 votes)
Download | Listen
Game: Legend of Zelda: Majora's Mask
Composer(s): Koji Kondo, Toru Minegishi
Style: 2 or more instruments, Arrangement
Series: Legend of Zelda

AutoScroll: Slow | Medium | Fast
The Legend of Zelda: Majora's Mask
Sonata of Awakening
Composed by Koji Kondo
Tabbed by hslesperance
8/16/08

Tempo= 92

Standard Tuning


e-----10-7-10-7---------------------------10-7-10-7-------------------------
B---------------------10----------------------------------10----------------
G-----------------7-------------7---------------------7--------------------- Guitar 1
D---------------------------------------------------------------------------
A---------------------------------------------------------------------------
E---------------------------------------------------------------------------

e---------------------------------------------------------------------------
B---------------------------------------------------------------------------
G--------------------------------------------------------------------------- Guitar 2
D--------0--------0------0-3-0----0-3-0------0--------0-----0-3-0---0-3-0---
A-----2----2----2---2-1---------1---------2----2----2---2-1-------1---------
E---3---------3-------------------------3---------3-------------------------

e-----10-7-10-7-------------------------------------------------------------
B---------------------10---------------10------8---5---7--------------------
G-----------------7------------7-------------------------------------------- Guitar 1
D---------------------------------------------------------------------------
A---------------------------------------------------------------------------
E---------------------------------------------------------------------------

e---------------------------------------------------------------------------
B--------------------------------------------------------------3-------3----
G------------------------------------------0-------0-------2-------2-------- Guitar 2
D--------0--------0------0-3-0---0-3-0---2---2---2---2-0-4---4---4---4------
A-----2----2----2---2-1--------1-------3-------3----------------------------
E---3---------3-------------------------------------------------------------

1 comment on Sonata of Awakening

great ilove the sound with

5

great ilove the sound with both together