Login or Register to remove this ad. | Advertise Here

Mayor's Meeting (Legend of Zelda: Majora's Mask) Guitar Tab

Submitted: Sep 07, 2008 by hslesperance

5
Average: 5 (4 votes)
Download | Listen
Game: Legend of Zelda: Majora's Mask
Composer(s): Koji Kondo, Toru Minegishi
Style: 2 or more instruments, Transcription
Series: Legend of Zelda

AutoScroll: Slow | Medium | Fast
The Legend of Zelda: Majora's Mask
Mayor's Meeting
Composed by Koji Kondo
Tabbed by hslesperance
8/29/08

Standard Tuning

  Guitar 1

e-------------3-3-3----------------------------3-3-3--------------------------|
B---1-4-4-4-3-------1-4-4-4-3--------1-4-4-4-3-------4-1-3-0-1----------------|
G-----------------------------0-0---------------------------------------------| 2x
D-----------------------------------------------------------------------------|
A-----------------------------------------------------------------------------|
E-----------------------------------------------------------------------------|

e-----------6-------8-------10--------------5-------6-------7-----------------|
B---9-------------------------------8-----------------------------------------|
G-----------------------------------------------------------------------------| 2x
D-----------------------------------------------------------------------------|
A-----------------------------------------------------------------------------|
E-----------------------------------------------------------------------------|

e-----------6-------8-------10------8---------------7-------------------------
B---9-------------------------------------------------------------------------
G-----------------------------------------------------------------------------
D-----------------------------------------------------------------------------
A-----------------------------------------------------------------------------
E-----------------------------------------------------------------------------

  Guitar 2

e-----------------------------------------------------------------------------|
B-----------------------------------------------------------------------------|
G-----------------------------------------------------------------------------| 2x
D----------------------------------------------------1---0--------------------|
A---3-----3-2-----2-3-----3-2--------3-----3-2-----2---3---2-3----------------|
E-----------------------------3-3---------------------------------------------|

e-----------------------------------------------------------------------------|
B-----------------------------------------------------------------------------|
G-----------------------------------------------------------------------------| 2x
D---3-3-3-3-3-3-3-3-3-3-3-3-3-3-3-3-------------------------------------------|
A-----------------------------------3-3-3-3-3-3-3-3-3-3-3-3-3-3-3-3-----------|
E-----------------------------------------------------------------------------|

e-----------------------------------------------------------------------------
B-----------------------------------------------------------------------------
G-----------------------------------------------------------------------------
D---3-3-3-3-3-3-3-3-3-3-3-3-3-3-3-3-5-5-5-5-5-5-5-5-5-5-5-5-5-5-5-5-----------
A-------------------------------------------------------------------5---------
E---------------------------------------------------------------------3-------

6 comments on Mayor's Meeting

Coulndt help but 2 laugh

5

Coulndt help but 2 laugh this song owns

good :)

awesome!!

Great Man Just,Great

5

This is pretty amazing man I actually practice along with zreo as its playing, and this sounds exactly like it!

Extra

Extra

awesome

this and deku palace are my favorite mm songs

One guitar

5

Great!
I've combined the two separate tabs for one guitar for all you pros out there!
e-------------3-3-3----------------------------3-3-3--------------------------|
B---1-4-4-4-3-------1-4-4-4-3--------1-4-4-4-3-------4-1-3-0-1----------------|
G-----------------------------0-0---------------------------------------------| 2x
D----------------------------------------------------1---0--------------------|
A---3-----3-2-----2-3-----3-2--------3-----3-2-----2---3---2-3----------------|
E-----------------------------3-3---------------------------------------------|

e-----------6-------8-------10--------------5-------6-------7-----------------|
B---9-------------------------------8-----------------------------------------|
G-----------------------------------------------------------------------------| 2x
D-----------3-3-3-3-----------------------------------------------------------|
A---8-8-8-8---------8-8-8-8-8-8-8-8---------3-3-3-3-3-3-3-3-------------------|
E-----------------------------------8-8-8-8-----------------8-8-8-8-----------|

e-----------6-------8-------10------8---------------7-------------------------
B---9-------------------------------------------------------------------------
G-----------------------------------------------------------------------------
D-----------3-3-3-3-----------------5-5-5-5-5-5-5-5-5-5-5-5-5-5-5-5-----------
A---8-8-8-8---------8-8-8-8-8-8-8-8---------------------------------5---------
E---------------------------------------------------------------------3-------