Login or Register to remove this ad. | Advertise Here

Inverted Song of Time (Legend of Zelda: Majora's Mask) Guitar Tab

Submitted: Jun 21, 2008 by ThatGuyInTheWindmill (Last updated: May 11, 2011)

4.57143
Average: 4.6 (7 votes)
Download | Listen
Game: Legend of Zelda: Majora's Mask
Composer(s): Koji Kondo, Toru Minegishi
Style: Transcription
Series: Legend of Zelda

AutoScroll: Slow | Medium | Fast
Game : The Legend of Zelda - Majora's Mask
Composer : Koji Kondo
Tabber : ThatGuyInTheWindmill

e----------------------------------------------------
B----------------------------------------------------
G--------2----------2--------------------------------
D--3--0-------3--0---------2--1--0-------------------
A-----------------------------------4--3--2----------
E----------------------------------------------------

3 comments on Inverted Song of Time

kool!

kool!

Do you think maybe the end

4

Do you think maybe the end should be:

e---------------
B---------------
G---------------
D-2-1-0---------
A-------4-3-2-1-
E---------------


Seems like it went like that to me.

I don't think so...

I played it both ways, and the way it was tabbed seemed correct to me.

Of course, there's nothing stopping you from playing it your way :)