Login or Register to remove this ad. | Advertise Here

Goron Lullaby (Legend of Zelda: Majora's Mask) Guitar Tab

Submitted: Feb 07, 2009 by smiley

5
Average: 5 (1 vote)
Download | Listen
Game: Legend of Zelda: Majora's Mask
Composer(s): Koji Kondo, Toru Minegishi
Style: Transcription
Series: Legend of Zelda

AutoScroll: Slow | Medium | Fast
Legend Of Zelda: Majoras Mask
Gorons Lullaby
Composer: Koji Kondo
Tabbed by: smiley
Date tabbed: February 6th 2009

This is the main melody:

e| --------------------------------------------
B| --------------------------------------------
G|------14--16------14--16--14------------
D|----12---------12-------------12r---------
A|---------------------------------------------
E|---------------------------------------------      x2

e| ---------------------------------
B| ---------------------------------
G|---------12v--------------------
D|---15v------14v--15--12r-----
A|---------------------------------
E|----------------------------------

Note:
r = Let ring
v = Vibrate

2 comments on Goron Lullaby

Thats really good!

5

Thats really good!

A easier way to do it.

e|----0-----5-----7----------------------------
B|---------------------------------------------
G|---------------------------------------------
D|---------------------------------------------
A|---------------------------------------------
E|---------------------------------------------

e|----0-----5-----7-----5-----0----------------
B|---------------------------------------------
G|---------------------------------------------
D|---------------------------------------------
A|---------------------------------------------
E|---------------------------------------------

This can be played on any cord. I just like e.
I did this by ear and it seems the closest I can figure.