Login or Register to remove this ad. | Advertise Here

Giant's Theme (Legend of Zelda: Majora's Mask) Guitar Tab

Submitted: Jun 21, 2008 by wako-kun (Last updated: Oct 18, 2009)

4.25
Average: 4.3 (4 votes)
Download | Listen
Game: Legend of Zelda: Majora's Mask
Composer(s): Koji Kondo, Toru Minegishi
Style: Transcription
Series: Legend of Zelda

AutoScroll: Slow | Medium | Fast
Majoras Mask - Giant's theme by Koji Kondo [tabs by wako-kun]

     Q    Q     Q     Q        Q     Q     Q     Q     
E||------------------------|--------------10----13----|
B||------------------------|--------10----------------|
G||------------------------|--10----------------------|
D||-------0----------12----|--------------------------|
A||------------12----------|--------------------------|
E||------------------------|--------------------------|


  Q     Q     Q     Q        Q     Q     Q     Q       
-------------------------|--------------10----15-----||
-------------------------|--------11-----------------||
-------------------------|--12----------------------*||
-------------------12----|--------------------------*||
-------------13----------|---------------------------||
-------11----------------|---------------------------||


  Q     Q     Q     Q        Q     Q     Q     Q       Q    Q    Q     Q     
-------------------------|--------------10----15----|-----------------------|
-------------------------|--------11----------------|-----------------------|
-------------------------|--12----------------------|-----------------------|
-------------------12----|--------------------------|-----------------14----|
-------------13----------|--------------------------|-------0---------------|
-------12----------------|--------------------------|------------9----------|


   Q     Q     Q     Q       Q    Q     Q     Q        Q     Q     Q     Q     
--------------12----15----|------------------------|--------------10----13----|
--------14----------------|------------------------|--------10----------------|
--12----------------------|------------------------|--10----------------------|
--------------------------|-------0----------12----|--------------------------|
--------------------------|------------12----------|--------------------------|
--------------------------|------------------------|--------------------------|


  Q    Q     Q     Q        Q     Q     Q     Q       Q    Q     Q     Q     
------------------------|--------------10----13----|------------------------|
------------------------|--------10----------------|------------------------|
------------------------|--10----------------------|------------------------|
-------0----------12----|--------------------------|-------0----------12----|
------------12----------|--------------------------|------------10----------|
------------------------|--------------------------|------------------------|


   Q     Q     Q     Q       Q    Q     Q     Q        Q     Q     Q     Q     
--------------10----15----|------------------------|--------------10----13----|
--------12----------------|------------------------|--------10----------------|
--12----------------------|------------------------|--10----------------------|
--------------------------|-------0----------12----|--------------------------|
--------------------------|------------12----------|--------------------------|
--------------------------|------------------------|--------------------------|


  Q    Q     Q     Q        Q     Q     Q     Q       Q     Q     Q     Q     
------------------------|--------------10----13----|-------------------------|
------------------------|--------10----------------|-------------------------|
------------------------|--10----------------------|-------------------------|
-------0----------12----|--------------------------|-------------------11----|
------------12----------|--------------------------|-------------10----------|
------------------------|--------------------------|-------12----------------|


   Q     Q     Q     Q      
--------------------15----||
--------------14----------||
--------12----------------||
--14----------------------||
--------------------------||
--------------------------||




Duration Legend
---------------
W - whole
H - half
Q - quarter
E - 8th
S - 16th
T - 32nd
X - 64th
. - note dotted
|-n-|  - n-tuplets

5 comments on Giant's Theme

this is the BEST song in MM!

this is the BEST song in MM!

I know, or one of them... Ye

I know, or one of them...

Ye have a good taste, mate!

Your Both Right

5

Best song in MM by far!
I love the feel of it!
Great tab by the way.

Good tab

5

The singing in the background.
E||---------1---5---3----|-----1-------1---0------|
B||---------------------3--|--------------------------|
G||------------------------|--------------------------|
D||------------------------|--------------------------|
A||------------------------|--------------------------|
E||------------------------|--------------------------|

This sounds cool

2

This sounds cool