Login or Register to remove this ad. | Advertise Here

Clock Town (Legend of Zelda: Majora's Mask) Guitar Tab

Submitted: Jun 21, 2008 by wako-kun (Last updated: Oct 18, 2009)

4.75
Average: 4.8 (4 votes)
Download | Listen
Game: Legend of Zelda: Majora's Mask
Composer(s): Koji Kondo, Toru Minegishi
Style: Arrangement, Fingerstyle
Series: Legend of Zelda

AutoScroll: Slow | Medium | Fast
Majoras Mask - Clock town theme by Koji Kondo

       H        Q    Q       H        Q    Q       
E||-----------------------|----------------------||
B||-----------------------|----------------------||
G||*----------------------|---------------------*||
D||*----------------------|---------------------*||
A||-----------------------|----------------------||
E||---10--------9----9----|--7--------9----9-----||


   |--3--|  |---3--|                |--3-|   |--3--|  |--3--|        
   Q     E  E  E   E  Q    Q        Q    E   E  E  E  Q     E  Q     
--------10--9--7------7---------|-----------------------------------|
------------------10-------8----|--10-------10--8-----8----10--7----|
---7----------------------------|--------9---------9----------------|
--------------------------------|-----------------------------------|
--------------------------------|-----------------------------------|
--10---------------L--9----9----|---7--------------L--9-----L--9----|


   |--3--|  |---3--|                |--3--|  |--3-|             
   Q     E  E  E   E  Q    Q        E  E  E  Q    E   H         
--------10--9--7------7---------|------------------------------|
------------------10-------8----|--10--8-----8----7------------|
---7----------------------------|---------9-----------7--------|
--------------------------------|------------------------------|
--------------------------------|------------------------------|
--10---------------L--9----9----|---7-----L--9----L--10--------|


   |--3--|  |---3--|                |--3-|   |--3--|  |--3--|        
   Q     E  E  E   E  Q    Q        Q    E   E  E  E  Q     E  Q     
--------10--9--7------7---------|-----------------------------------|
------------------10-------8----|--10-------10--8-----8----10--7----|
---7----------------------------|--------9---------9----------------|
--------------------------------|-----------------------------------|
--------------------------------|-----------------------------------|
--10---------------L--9----9----|---7--------------L--9-----L--9----|


   |--3--|  |---3--|                |--3--|  |---3--|             
   Q     E  E  E   E  Q    Q        E  E  E  E   E  E   H         
--------10--9--7------7---------|--------------------------------|
------------------10-------8----|--10--8-----8--10--7------------|
---7----------------------------|---------9-------------7--------|
--------------------------------|--------------------------------|
--------------------------------|--------------------------------|
--10---------------L--9----9----|---7-----L--9------L--10--------|



  |--3-|  |--3--|               |--3--|  |--3-|             
  Q    E  E  E  E  Q    Q       E  E  E  Q    E  Q    Q     
-------------------0---------|--3--2--3--2-------0---------|
--3----3--3--2--3------------|----------------3------------|
------------------------2----|------------------------2----|
--0--------------------------|-----------------------------|
-------------------4----4----|--2----------------4----4----|
-----------------------------|-----------------------------|





  |--3-|  |--3--|  |--3-|          |--3--|  |--3-|            
  Q    E  E  E  E  Q    E  Q       E  E  E  Q    E  H         
-------------------0------------|--3--2--3--2----------------|
--3----3--3--2--3-------2-------|----------------2--3--------|
---------------------------2----|----------------------------|
--0-----------------------------|-------------------0--------|
-------------------4-------4----|--2--------4----------------|
--------------------------------|----------------------------|


  |--3-|  |--3--|               |--3--|  |--3-|  |--3-|        
  Q    E  E  E  E  Q    Q       E  E  E  Q    E  Q    E  Q     
-------------------0---------|--3--2--3--2-------0------------|
--3----3--3--2--3------------|----------------3-------2-------|
------------------------2----|---------------------------2----|
--0--------------------------|--------------------------------|
-------------------4----4----|--2----------------4-------4----|
-----------------------------|--------------------------------|


  |--3-|  |--3--|               |--3--|  |--3-|            
  Q    E  E  E  E  Q    Q       E  E  E  Q    E  H         
-------------------0---------|--3--2--3--2----------------|
--3----3--3--2--3------------|----------------2--3--------|
------------------------2----|----------------------------|
-----------------------------|----------------------------|
--5----------------4----4----|--2--------4-------5--------|
-----------------------------|----------------------------|


  H        E  Q.        H        E  Q.        H        Q    Q     
--7--------5---------|---------------------|--7--------5---------|
---------------------|--8--------7---------|----------------8----|
--7--------6---------|---------------------|--7--------6---------|
---------------------|--9--------7---------|----------------9----|
---------------------|---------------------|---------------------|
---------------------|---------------------|---------------------|


  H        H           H        E  Q.         H        E  Q.      
--------------------|--7--------5---------|--10--------9---------|
--7--------5--------|---------------------|----------------------|
--------------------|--7--------6---------|--11--------9---------|
--7--------5--------|---------------------|----------------------|
--------------------|---------------------|----------------------|
--------------------|---------------------|----------------------|


  H        H           W                                     
--9--------8--------|--7----------------|
--------------------|-------------------|
--9--------8--------|--7----------------|
--------------------|-------------------|
--------------------|-------------------|
--------------------|-------------------|



Duration Legend
---------------
W - whole
H - half
Q - quarter
E - 8th
S - 16th
T - 32nd
X - 64th
. - note dotted
|-n-|  - n-tuplets

3 comments on Clock Town

Amazing

5

Difficult to play but it is still a great song.

very nice

5

very nice

Nice song

This song is great nice job