Login or Register to remove this ad. | Advertise Here

Clock Town (Legend of Zelda: Majora's Mask) Guitar Tab

Submitted: Jun 21, 2008 by TeamWreck (Last updated: Oct 18, 2009)

4.5
Average: 4.5 (2 votes)
Download | Listen
Game: Legend of Zelda: Majora's Mask
Composer(s): Koji Kondo, Toru Minegishi
Style: 2 or more instruments, Transcription
Series: Legend of Zelda

AutoScroll: Slow | Medium | Fast
Game: Lengend of Zelda Majora's Mask
Composer: Koji Kondo
Tabber: TeamWreck

Tips: "For the meat of this song try and keep the 7th fret 
barred on the e,b, and g strings. It'll help a bunch.One more thing
up and down strumming is your best friend."

Lead Guitar	

e |---10-9-7---7--------------------------10-9-7---7------------------|
b |----------8---8-10---10---8---8-10-7----------8---8-10-8---8-7-----|
g |7------------------9----9---9--------7-------------------9-----7---|
d |-------------------------------------------------------------------|
a |-------------------------------------------------------------------|
E |-------------------------------------------------------------------|

e |---10-9-7---7--------------------------10-9-7---7------------------|
b |----------8---8-10---10---8---8-10-7----------8---8-10-8---8-10-7--|
g |7------------------9----9---9--------7-------------------9-------7-|
d |-------------------------------------------------------------------|
a |-------------------------------------------------------------------|
E |-------------------------------------------------------------------|

***********************************************************************
e |-10--10-10-9-10-12----15-14-15-14----------------------------------
b |-------------------10-------------15-17--14------------------------
g |--------------------------------------------14---------------------
d |-------------------------------------------------------------------
a |-------------------------------------------------------------------
E |-------------------------------------------------------------------

e |-10--10-10-9-10-12----15-14-15-14----------------------------------
b |-------------------10-------------14-15----------------------------
g |-------------------------------------------------------------------
d |-------------------------------------------------------------------
a |-------------------------------------------------------------------
E |-------------------------------------------------------------------
***********************************************************************
* repeat the starred section twice*

e |----------------------------------10-9-9-8-7-5------17----17-------|
b |--12-10-------12-10---------12-10----------------15----15----------|
g |--------12-11-------12-11-9----------------------------------------|
d |-------------------------------------------------------------------|
a |-------------------------------------------------------------------|
E |-------------------------------------------------------------------|

Background Guitar


e |-------------------------------------------------------------------|
b |-------------------------------------------------------------------|
g |-------------------------------------------------------------------|
d |-12--11--9-11------------------------------------------------------|
a |-------------------------------------------------------------------|
E |-------------------------------------------------------------------|

* This little part repeats throughout the entire song.*

"Congratulations! You have just finished playing Clocktown Theme!. The song
pretty much loops from this point, so play for as long as you like.