Login or Register to remove this ad. | Advertise Here

Clock Town (Legend of Zelda: Majora's Mask) Guitar Tab

Submitted: May 11, 2008 by archard (Last updated: Oct 16, 2009)

4.833335
Average: 4.8 (6 votes)
Download | Listen
Game: Legend of Zelda: Majora's Mask
Composer(s): Koji Kondo, Toru Minegishi
Style: Arrangement, Fingerstyle
Series: Legend of Zelda

AutoScroll: Slow | Medium | Fast
Clock Town
Legend of Zelda: Majora's Mask
Composed by Koji Kondo
Arranged by Richard Schaefer (archard)
5/11/08



      E  E  E  E  E  E     E  E  E  E  E  E     E  E  E  E  E  E   
E||---------------------|--------------------|--------------------|
B||------------3--------|-----------2--------|-----------0--------|
G||*--------2-----2-----|--------2-----2-----|--------2-----2-----|
D||*-----4-----------4--|-----2-----------2--|-----2-----------2--|
A||---5-----------------|--4-----------------|--2-----------------|
E||---------------------|--------------------|--------------------|


  E  E  E  E  E  E     Q    E  E  E  E     Q.     Q.        Q    E  E  E  E   
--------------------|-------------------|----------------|-------------------|
--2--------2--------|-------3--2--0-----|--0-------------|-------------------|
--------2--------2--|----------------2--|---------0------|--2-------2--0-----|
-----4--------4-----|--0----------------|----------------|-------2--------2--|
--4-----------------|-------------------|--4-------------|--2----------------|
--------------------|-------------------|----------------|-------------------|


  Q    E  Q.        Q    E  E  E  E     Q.     Q.        E  E  E  Q    E   
-----------------|-------------------|----------------|-------------------|
-----------------|-------3--2--0-----|--0-------------|-------------------|
--0----2---------|----------------2--|---------0------|--2--0-----0-------|
----------4------|--0----------------|----------------|--------2-------4--|
--4--------------|-------------------|--4-------------|--2----------------|
-----------------|-------------------|----------------|-------------------|


  H.              Q    E  E  E  E     Q.     Q.        Q    E  E  E  E   
---------------|-------------------|----------------|-------------------|
---------------|-------3--2--0-----|--0-------------|-------------------|
---------------|----------------2--|---------0------|--2-------2--0-----|
--0------------|--0----------------|----------------|-------2--------2--|
---------------|-------------------|--4-------------|--2----------------|
---------------|-------------------|----------------|-------------------|


  Q    E  Q.        Q    E  E  E  E     Q.     Q.        E  E  E  Q    E   
-----------------|-------------------|----------------|-------------------|
-----------------|-------3--2--0-----|--0-------------|-------------------|
--0----2---------|----------------2--|---------0------|--2--0-----0-------|
----------4------|--0----------------|----------------|--------2-------4--|
--4--------------|-------------------|--4-------------|--2----------------|
-----------------|-------------------|----------------|-------------------|


  H.              Q    E  E  E  E     Q.     Q.        E  E  E  Q    E   
---------------|-------------------|--0-------------|--3--2--3--2-------|
--3------------|--3----3--3--2--3--|----------------|----------------3--|
--2------------|-------------------|---------2------|-------------------|
--4------------|--0----------------|----------------|-------------------|
---------------|-------------------|--4-------------|--2----------------|
---------------|-------------------|----------------|-------------------|


  Q.     Q.        Q    E  E  E  E     Q.     Q.        E  E  E  Q    E   
--0-------------|-------------------|--0-------------|--3--2--3--2-------|
----------------|--3----3--3--2--3--|----------------|----------------2--|
---------2------|-------------------|---------2------|-------------------|
----------------|--0----------------|----------------|-------------------|
--4-------------|-------------------|--4-------------|--2----------------|
----------------|-------------------|----------------|-------------------|


  H.              Q    E  E  E  E     Q.     Q.        E  E  E  Q    E   
---------------|-------------------|--0-------------|--3--2--3--2-------|
--3------------|--3----3--3--2--3--|----------------|----------------3--|
---------------|-------------------|---------2------|-------------------|
--0------------|--0----------------|----------------|-------------------|
---------------|-------------------|--4-------------|--2----------------|
---------------|-------------------|----------------|-------------------|


  Q    E  Q.        Q    E  E  E  E     Q.     Q.        E  E  E  Q    E   
--0--------------|-------------------|--0-------------|--3--2--3--2-------|
-------2---------|--3----3--3--2--3--|----------------|----------------2--|
----------2------|-------------------|---------2------|-------------------|
-----------------|--0----------------|----------------|-------------------|
--4--------------|-------------------|--4-------------|--2----------------|
-----------------|-------------------|----------------|-------------------|


  ^               
  H.              
----------------||
--3-------------||
--2------------*||
--4------------*||
--5-------------||
----------------||




Duration Legend
---------------
H - half
Q - quarter
E - 8th
. - note dotted
L - tied note

4 comments on Clock Town

Great simple rendition ---

5

Great simple rendition --- one minor detail I think could be improved upon:

     E  E  E  Q    E    
E||-------------------||
B||-------------------||
G||--2--0-----0-------||
D||--------2-------4--||
A||--2----------------||
E||-------------------||

I would simply add a C# on the quarter note to keep the bass progression more fluid, like so:

     E  E  E  Q    E    
E||-------------------||
B||-------------------||
G||--2--0-----0-------||
D||--------2-------4--||
A||--2--------4-------||
E||-------------------||

Other than that, 5 stars.

Nice arragement, Archard!

5

Nice arragement, Archard! I'm definetly gonna use this to practice my finger picking.

Yeah, sounds pretty good.

Yeah, sounds pretty good. However, how about tuning down the 6th string to D and use that instead of the 4th string. (Well, I just love a good bass. ^.^)

I would need to tune it down

I would need to tune it down to a B actually, and that's just too dang low.