Login or Register to remove this ad. | Advertise Here

Pause Screen (Banjo-Kazooie) Guitar Tab

Submitted: Sep 09, 2006 by archard (Last updated: Jun 20, 2008)

4.4
Average: 4.4 (20 votes)
Download | Listen
Game: Banjo-Kazooie
Composer(s): Grant Kirkhope
Style: Transcription

AutoScroll: Slow | Medium | Fast
Pause Screen
Banjo-Kazooie
Composed by Grant Kirkhope
Tabbed by Richard Schaefer (richard@gametabs.net)
9/9/06

e--------------------------------------------------------------------
B--1---------1---------1---------1-----------------------------------
G-----0-2-0-----0-2-0-----0-1-0-----0-1-0--0-----2-0-----0-----2-0---
D---------------------------------------------2-------2-----2-------2
A--------------------------------------------------------------------
E--------------------------------------------------------------------

e---------------------------------------------------------------------
B--1---------1---------1---------1------------------------------------
G-----0-2-0-----0-2-0-----0-1-0-----0-1-0--0--0--2-3--2--0--3--0------
D-----------------------------------------------------------------2--3
A---------------------------------------------------------------------
E---------------------------------------------------------------------

e--13----------0----13-----------------------
B--14------------2--14--2--1-2-4-1-----3-1---
G---------0-2-----------------------2-------2
D------3-------------------------------------
A--------------------------------------------
E--------------------------------------------

e----------5--------3----13--1--0-1-------------4--1--1-3-5--3--1--5--1---
B--6--5-6---------5---6--14---------4-2--2-1-2---------------------------1
G------------5--7---------------------------------------------------------
D-------------------------------------------------------------------------
A-------------------------------------------------------------------------
E-------------------------------------------------------------------------

e--3-3-3-3--5-7--5-3-----3-3-3-3--5-6--5-3--0----3--5-3------------------------
B---------------------3-----------------------3----------3---------3-----------
G-----------------------------------------------------------4--3-4----4--3-4--0
D------------------------------------------------------------------------------
A------------------------------------------------------------------------------
E------------------------------------------------------------------------------

e------------------------------------------------0-1--0-----1------
B--1---------1---------1---------1---------3--3----------3-----3---
G-----0-2-0-----0-2-0-----0-1-0-----0-1-0-------------------------2
D------------------------------------------------------------------
A------------------------------------------------------------------
E------------------------------------------------------------------

Repeat from beginning

15 comments on Pause Screen

hey nice work, class game =D

hey nice work, class game =D dont suppose you could do the main theme too could you? i know theyre pretty similar but they have small differences, so if you could i would REALLY apreciate it.
great work!

It would be awesome if you

It would be awesome if you made the bass tabs to.

haha, nice tab, pretty

haha, nice tab, pretty unexptected...I never got around to beating this game...

real sweet tab

real sweet tab

HOW CAN YOU NOT BEAT THIS

HOW CAN YOU NOT BEAT THIS GAME!!!?

i played it a long time ago

i played it a long time ago but i remember it was long. i used to call my mom grumptilda eheheh..

Sorry if i'm off-topic,

Sorry if i'm off-topic,

but, WTF /b/rotha? Stop breaking rules 1 & 2.

this is a good tab but could

this is a good tab but could u make a grunty's lair tab next

very nice, but some

very nice, but some comments:

for the little 4-3-4-B3 run on the 3rd system, instead of what you have, it should be for the second time:

G:4-3-4 B:3 G:4 B:3 G:4-0
(excuse how i write this, dealing with tabs is hard, just read it across, playing it note by note, each letter being the corresponding string that is to be played)

Also, for the final system, instead of repeating what you had at the first system, it goes higher, so it should be tabbed as:

E:3 B:3 E:0 B:3 E:3 B:3 E:0 B:3 E:3 B:2 E:0 B:2 E:3 B:2 E:0 B:2

Finally, the very last note of the piece should just be an open G string, no frets played.

I hope you could understand what the fuck my comment was trying to say. Great tab nonetheless, too bad I suck at guitar. Oh well, i guess i'm not supposed to be Hendrix at 6 months.

Also, Rembrant: It's not like it's a secret club or something. Desu.

Awesome tab, although I

5

Awesome tab, although I think the last note should be done playing the B string, no fret. Still, the rest sounds perfect to me :) Good job :D

agreed but good job

agreed but good job

Based on this, you could

Based on this, you could write the opening theme too. The banjoing there is sick, no pun intended.

great now we need rusty

5

great now we need rusty bucket bay, and click clock woods and we have my fav songs, would you kindly p.s. i love bioshock if u could get a tab for that i will call you a god you almost god-like tabber

I agree

I think Bizzle had it right, it does go higher at the last part.

this is awesome

5

I loved practicing for this song it made it worth while because it sounds just like it..great work