Login or Register to remove this ad. | Advertise Here

The Lost Forest (Nier) Guitar Tab

Submitted: Nov 03, 2010 by hslesperance

5
Average: 5 (1 vote)
Download | Listen
Game: Nier
Composer(s): Keiichi Okabe, Kakeru Ishihama, Keigo Hoashi, Takafumi Nishimura
Style: Transcription, Tremolo

AutoScroll: Slow | Medium | Fast
The Lost Forest
Nier
Composed by Keiichi Okabe, Kakeru Ishihama, Keigo Hoashi, Takafumi Nishimura
Tabbed by hsleperance
11/3/10

Standard Tuning


e-------------------------------------------------------------
B---------6----------------6h8p6-5----------------------------
G-------7--------------------------5-7------------------------
D---7h8-------------------------------------------------------
A-------------------------------------------------------------
E-------------------------------------------------------------

e-------------------------------------------------------------
B--------------------------------5-6-8----5--------8-6-5------
G-------5-7-5----------------5-7-------------------------6----
D---7-8--------------------7----------------------------------
A-------------------------------------------------------------
E-------------------------------------------------------------

e-----------------------------------------------4h5-----------
B------------------6----------------6-8-6-5-------------------
G---5------------7--------------------------5-7---------------
D-----8-7-7----7----------------------------------------------
A-------------------------------------------------------------
E-------------------------------------------------------------

e-------------------------------------------------------------
B------------------------------5-6-8----5----------------7----
G-------5-7-5--------------5-7--------------------------------
D---7-8------------------7------------------------------------
A-------------------------------------------------------------
E-------------------------------------------------------------
    TP            TP    TP           TP    TP
e---10------------12----9-------------------------------------
B------------------------------------10----12-----------------
G-------------------------------------------------------------
D-------------------------------------------------------------
A-------------------------------------------------------------
E-------------------------------------------------------------

e------10-9---------------------------------------------------
B-----------12-10-----10--------------------------------------
G---12-------------12-------11----------------11--------------
D-------------------------------------------------------------
A-------------------------------------------------------------
E-------------------------------------------------------------
    TP            TP    TP           TP    TP
e---10------------12----9-------------------------------------
B------------------------------------10----12-----------------
G-------------------------------------------------------------
D-------------------------------------------------------------
A-------------------------------------------------------------
E-------------------------------------------------------------

e------10-9---------------------------------------------------
B-----------12-10-----10--------------------------------------
G---12-------------12-----------------------------------------
D-------------------------------------------------------------
A-------------------------------------------------------------
E-------------------------------------------------------------

1:34
e-------------------------------------------------------------
B---5-6--6--6--5---------------------5-6--6--6--5-------------
G-----------------7-6------------------------------5----------
D-------------------------------------------------------------
A-------------------------------------------------------------
E-------------------------------------------------------------

e-------------------------------------------------------------
B---5/6-6-6--6-5----------------------------------------------
G----------------7-5-5------5-7-5------5-7-5------5-7-5--7----
D-------------------------7----------7----------7-------------
A-------------------------------------------------------------
E-------------------------------------------------------------

e------------9------6-5h6p5------------------9----------------
B---5-6-5-8-----5-8---------8-6-5-8------5-8--------5-6----6--
G-----------------------------------6-------------7-----------
D-------------------------------------------------------------
A-------------------------------------------------------------
E-------------------------------------------------------------
1:53
e---4/5-5-5-5-5-5-5-------------------------------------------
B--------------------8---------6----------5-6-----------------
G-------------------------7-------------5---------------------
D-------------------------------------------------------------
A-------------------------------------------------------------
E-------------------------------------------------------------

e---4/5-5-5-5-5-5----------------------8--------------8-------
B-----------------8---8-6--5-6--5-----------------------------
G----------------------------------7-5----------5h7p5---------
D-------------------------------------------------------------
A-------------------------------------------------------------
E-------------------------------------------------------------

e-------5----------------5-6-5---6-5h6p5------------------9---
B--------------5-6-5-6-8-------8---------8-6-5-8------5-8-----
G---5-7----7-5-----------------------------------6------------
D-------------------------------------------------------------
A-------------------------------------------------------------
E-------------------------------------------------------------
2:09
e--------7-9/10--10-10-10-10/12----10--9----10-9----9---------
B---7-7----------------------------------12------12---12-10---
G-------------------------------------------------------------
D-------------------------------------------------------------
A-------------------------------------------------------------
E-------------------------------------------------------------

e---9---------------------------------------------10-9-10--9--
B------12--10--------7-10----8--8--8-----7-8-7----------------
G-------------------------------------------------------------
D-------------------------------------9-----------------------
A-------------------------------------------------------------
E-------------------------------------------------------------
2:22
e-------------------------------------------------------------
B------------------------------------------------7-8-10----8--
G------------------------------------6--7--6-7-9--------------
D---9--9--7-----------------------9---------------------------
A------------10--9--------------------------------------------
E-------------------------------------------------------------

e-------------------------------------------------------------
B---7-8-7------------------7-8-7------------------------------
G---------9-7-6-9----------------9-7--------------------------
D-----------------7-------------------------7-----------------
A----------------------------------------------10-------------
E-------------------------------------------------------------

e----------------------------9-10-10-10-10-10-10-12-12-12-12--
B----------------------10-12----------------------------------
G--------------9-11-12----------------------------------------
D------9-11-12------------------------------------------------
A---10--------------------------------------------------------
E-------------------------------------------------------------

e---12-12-14-14-14-14-14-14--15-15-15-------------------------
B-------------------------------------------------------------
G-------------------------------------------------------------
D-------------------------------------------------------------
A-------------------------------------------------------------
E-------------------------------------------------------------

h - hammer on
p - pull off
/ - slide up
TP - tremolo picking