Login or Register to remove this ad. | Advertise Here

Title Theme (Wrecking Crew) Guitar Tab

Submitted: Sep 30, 2007 by Kabukibear (Last updated: Sep 12, 2009)

5
Average: 5 (3 votes)
Download | Listen
Game: Wrecking Crew
Composer(s): Hirokazu Tanaka
Style: Arrangement, Fingerstyle

AutoScroll: Slow | Medium | Fast
Title Theme
~Wrecking Crew~
Composed By: Hirokazu Tanaka
Arranged By: Justin Lincoln

bpm=140
With a swing feel

     E  E  Q    Q    Q       E  E  Q    Q    Q       E  E  Q    Q    Q
E||-----2-------2---------|-----3-------3---------|-----2-------2---------|
B||-----3-------3----3----|-----3-------3---------|-----3-------3----3----|
G||------------------2----|-----------------------|------------------2----|
D||--0--------------------|-----------------------|--0--------------------|
A||--------4----2----0----|--------0----2----4----|--------4----2----0----|
E||-----------------------|--3--------------------|-----------------------|

                                          |--3--|
  E  E  Q    Q    Q       E  E  Q    Q    E  E  E     E  E  Q    Q    Q
-----3-------3---------|-----2-------2-------2--3--|-----3-------3----5----|
-----3-------3---------|-----3-------3----3--------|-----3-------3----5----|
-----------------------|---------------------------|-----------------------|
-----------------------|--0------------------------|-----------------------|
--------0----2----4----|--------4----2----0--------|--------0----2----4----|
--3--------------------|---------------------------|--3--------------------|

                  |--3--|
  E  E  Q    Q    E  E  E     E  E  Q    Q    Q
-----2-------2-------2--3--|-----3-------3----5----|
-----3-------3----3--------|-----3-------3----5----|
---------------------------|-----------------------|
--0------------------------|-----------------------|
--------4----2----0--------|--------0----2----4----|
---------------------------|--3--------------------|

    E  E  E  E  E  E  E  E     E  E  E  E  E  E  E  E
|---2--5--------------------|--------------7--5--------|
|---3--------3-----3--2--0--|-----------0-----------2--|
|*-----------2-----2-----0--|-----------------6--------|
|*--0--0--------------------|--------------------------|
|---------4-----2--2--0-----|--------------------0-----|
|---------------------------|--3--3--2-----0-----------|

                                         |--3--|
  E  E  E  E  E  E  E  E     E  E  E  E  E  E  E  E  E
--2--5--------------------|-----------------------2--0---||
--3--------3-----------0--|-----------0-----0--3---------||
-----------2-----------0--|--------------2--------------*||
--0--0--------------------|-----------------------------*||
--------4-----2--2--0-----|-----------------------0------||
--------------------------|--3--3--2-----0---------------||

  E  E  Q    E  E  Q       E  E  Q    E  E  Q       E  E  Q    E  E  Q
--5--5--3----2-----0----|--------0----2-----3----|--5--5--3----2-----0----|
--3--3-------3-----2----|--3--3--2----3-----5----|--3--3-------3-----2----|
------------------------|--4--4------------------|------------------------|
--0--0------------------|------------------------|--0--0------------------|
--------4----2--2--0----|-------------------0----|--------4----2--2--0----|
------------------------|--3--3--2----0--0-------|------------------------|

  E  E  Q    E  E  Q       E  E  Q    E  E  Q       E  E  Q    E  E  Q
--------0---------------|--5--5--3----2-----0----|--------0----2-----3----|
--3--3--2----3-----3----|--3--3-------3-----2----|--3--3--2----3-----5----|
--4--4-------4-----4----|------------------------|--4--4------------------|
------------------------|--0--0------------------|------------------------|
-------------------0----|--------4----2--2--0----|-------------------0----|
--3--3--2----0--0-------|------------------------|--3--3--2----0--0-------|

  E  E  Q    E  E  Q       E  E  Q    E  E  Q       E  E  Q    Q    Q
--5--5--3----2-----0----|--------0---------------|-----3-------3----0----|
--3--3-------3-----2----|--3--3--2----3-----3----|-----------------------|
------------------------|--4--4-------4-----2----|-----5-------5---------|
--0--0------------------|------------------------|-----------------------|
--------4----2--2--0----|-------------------0----|--3--------------------|
------------------------|--3--3--2----0--0-------|--------0----3----0----|

  E  E  Q    Q    Q       E  E  Q    Q    Q       E  E  Q    Q    Q
-----1-------1----5----|-----3-------3----0----|-----1-------1----0----|
-----1-------1---------|-----------------------|-----1-------1---------|
-----------------------|-----5-------5---------|-----------------------|
------------------3----|-----------------------|-------------0---------|
-------------0---------|--3--------------------|-----------------------|
--1-----3--------------|--------0----3----0----|--1-----0---------3----|

  E  E  Q    Q    Q       E  E  Q    Q    Q       E  E  Q    Q    Q
-----3-------3----0----|-----1-------1----5----|-----3-------3----0----|
-----------------------|-----1-------1---------|-----------------------|
-----5-------5---------|-----------------------|-----5-------5---------|
-----------------------|------------------3----|-----------------------|
--3--------------------|-------------0---------|--3--------------------|
--------0----3----0----|--1-----3--------------|--------0----3----0----|

                Da Capo   ^
  E  E  Q    Q    Q       W
-----1-------1----0----|--0----------------||
-----1-------1---------|--1----------------||
-----------------------|--0----------------||
-------------0---------|--2----------------||
-----------------------|--3----------------||
--1-----0---------3----|-------------------||

Duration Legend
---------------
W - whole
H - half
Q - quarter
E - 8th
S - 16th
T - 32nd
X - 64th
. - note dotted
|-n-|  - n-tuplets

Tablature Legend
----------------
Da Capo - Go to beginning and play through again, including all repeats.
^ - brush up

1 comment on Title Theme

Wow I love this tab. You

Wow I love this tab. You should make more swing pieces.