Login or Register to remove this ad. | Advertise Here

Iceman's Stage (Mega Man) Bass Tab

Submitted: Nov 13, 2007 by Ice Climbers (Last updated: May 07, 2008)

4
Average: 4 (1 vote)
Download | Listen
Game: Mega Man
Composer(s): Yoshihiro Sakaguchi, Manami Matsumae
Style: Transcription
Series: Mega Man

AutoScroll: Slow | Medium | Fast
                                Game: Megaman 
                            Stage: Iceman - Bass
                    Tabbed By: Erik Lundmark, Nicklas Engberg

                                   NOTE!!! 
         Sometimes you must ignore the timing! Just listen to the song!


CONTACT:

www.myspace.com/iceclimbersrocks

iceclimbersrocks@hotmail.com

G-----------------------|-----------------------------------------------------
D-----------------------|-x4--------------------------------------------------
A-----------------------|-----3-3---3-3---3----3-3--3-3-3--1-1--1-1-1--3-3----
E-8-8--8-8-8--6-6--6-6-6|---------3-----3-------------------------------------
                                                                              
G-----------------------------------------------------------------------------
D--------------------1-1--1-1-1-------------1-1--1-1-1------------------------
A-3-3-3--1-1--1-1-1--------------4-4--4-4-4-------------4-4--4-4--------------
E----------------------------------------------------------------2------------