Login or Register to remove this ad. | Advertise Here

Iceman's Stage (Mega Man) Guitar Tab

Submitted: Nov 13, 2007 by Ice Climbers

0
Download | Listen
Game: Mega Man
Composer(s): Yoshihiro Sakaguchi, Manami Matsumae
Style: 2 or more instruments, Transcription
Series: Mega Man

AutoScroll: Slow | Medium | Fast
                               Game: Megaman 
                         Stage: Iceman - Lead guitar
                   Tabbed By: Erik Lundmark, Nicklas Engberg

                                   NOTE!!! 
         Sometimes you must ignore the timing! Just listen to the song!


CONTACT:

www.myspace.com/iceclimbersrocks

iceclimbersrocks@hotmail.com

e------------------------------------------------------------------------------
B------------------------------------------------------------------------------
G------------------------------8-------------------------------8---------------
D-10-10--10-10-8--10-10--10-10----10-10--10-10-8--10-10--10-10-----------------
A------------------------------------------------------------------------------
E------------------------------------------------------------------------------
                                                                              
e------------------------------------------------------------------------------
B----------------------------------------------------13--11-13-13/15-11--------
G----------------------------------12-12-10-12--9-12--------------------10-----
D-5-6--7-8--9-10-1112-13-14-15-16----------------------------------------------
A------------------------------------------------------------------------------
E------------------------------------------------------------------------------
                                                                              
e-----------------------------------------11-9-11-11/13-9----------------------
B-------------------13--11--11-9-11--8-11-----------------9--11-11-9-11--8-11--
G-12-12-10-12--9-12------------------------------------------------------------
D------------------------------------------------------------------------------
A------------------------------------------------------------------------------
E------------------------------------------------------------------------------
                                                                              
e-11-13--15--------------------------------------------------------------------
B------------------------------------------------------------------------------
G------------------------------------------------------------------------------
D------------------------------------------------------------------------------
A------------------------------------------------------------------------------
E------------------------------------------------------------------------------

                                Game: Megaman 
                          Stage: Iceman - Harmony guitar
                    Tabbed By: Erik Lundmark, Nicklas Engberg

                                   NOTE!!! 
         Sometimes you must ignore the timing! Just listen to the song!


CONTACT:

www.myspace.com/iceclimbersrocks

iceclimbersrocks@hotmail.com


e------------------------------------------------------------------------------
B------------------------------------------------------------------------------
G----9-10-11-12-11-10-9-------9-10-11-12-11-10-9----7-8-9-10-9-8-7---7-8-9-10--
D-10--------------------10-10---------------------8----------------8-----------
A------------------------------------------------------------------------------
E------------------------------------------------------------------------------
                                                                              
e-------|---------------------------8-9-10-11----------------------------------
B-------|-----------------9-10-1112------------------------------13--11-13-----
G-9-8-7-|-----9-10--11-12----------------------12-12-10-12--9-10---------------
D-------|-x4-------------------------------------------------------------------
A-------|----------------------------------------------------------------------
E-------|----------------------------------------------------------------------
                                                                              
e-----------------------------------------------------------11--9-11-11/13-9---
B-13/15-11-----------------------13--11----11-11-9-11--8-11--------------------
G----------10--12-12-10-12--9-12-----------------------------------------------
D------------------------------------------------------------------------------
A------------------------------------------------------------------------------
E------------------------------------------------------------------------------
                                                                              
e---------------------11-13----------15-17-19-22-------------------------------
B-9--11-11-9-11--8-11-------------15-------------------------------------------
G---------------------------14-16----------------------------------------------
D------------------------------------------------------------------------------
A------------------------------------------------------------------------------
E------------------------------------------------------------------------------