Login or Register to remove this ad. | Advertise Here

Fireman's Stage (Mega Man) Bass Tab

Submitted: Nov 12, 2007 by Ice Climbers (Last updated: May 07, 2008)

0
Download | Listen
Game: Mega Man
Composer(s): Yoshihiro Sakaguchi, Manami Matsumae
Style: Transcription
Series: Mega Man

AutoScroll: Slow | Medium | Fast
                               Game: Megaman 
                           Stage: Fireman - Bass
                  Tabbed By: Erik Lundmark, Nicklas Engberg

                                   NOTE!!! 
         Sometimes you must ignore the timing! Just listen to the song!


CONTACT:

www.myspace.com/iceclimbersrocks

iceclimbersrocks@hotmail.com

G---------------------|--------------------------------------------------------
D---4-----4---4-----4-|-x------------------------------------------------------
A---------------------|----------------7-------------5--------------------7----
E-5---4-4---3---4-4---|---10-10--10-10---3--8-8--8-8---1--7--10-10--10-10------
                                                                              
G------------------------------------------------------------------------------
D------------------------------------------------------------------------------
A-9-11----------5--7-9---------------------------------------------------------
E------8-8--8-8--------7-7--7-7-7-7--7-7-0-------------------------------------