Login or Register to remove this ad. | Advertise Here

Fireman's Stage (Mega Man) Guitar Tab

Submitted: Nov 12, 2007 by Ice Climbers

5
Average: 5 (2 votes)
Download | Listen
Game: Mega Man
Composer(s): Yoshihiro Sakaguchi, Manami Matsumae
Style: 2 or more instruments, Transcription
Series: Mega Man

AutoScroll: Slow | Medium | Fast
                                Game: Megaman 
                         Stage: Fireman - Lead guitar
                    Tabbed By: Erik Lundmark, Nicklas Engberg

                                   NOTE!!! 
         Sometimes you must ignore the timing! Just listen to the song!

CONTACT:

www.myspace.com/iceclimbersrocks

iceclimbersrocks@hotmail.com


e--------------------------------------------------14--12-14-12----------------
B---------------------------------9----------12/14--------------14-12-14-------
G-11--9-11-9-------------11--9-11---11-9-11------------------------------------
D------------11-9-11--11-------------------------------------------------------
A------------------------------------------------------------------------------
E------------------------------------------------------------------------------
                                                                              
e----14--12-14-16--14-12-14----------------------------------------------------
B-14-------------------------15--14-12-------12-14--12-10----9-10-12--10-9-----
G--------------------------------------13-14--------------11---------------10--
D------------------------------------------------------------------------------
A------------------------------------------------------------------------------
E------------------------------------------------------------------------------
                                                                              
e---------------------------------12-----------------10-9----------------------
B----9-10-12--13-14--15--14-12-------15-14--12-10---------12--10-12-13--14-15--
G-11---------------------------13-----------------11---------------------------
D------------------------------------------------------------------------------
A------------------------------------------------------------------------------
E------------------------------------------------------------------------------
                                                                              
e-11-12--1313------------------------------------------------------------------
B------------------------------------------------------------------------------
G------------------------------------------------------------------------------
D------------------------------------------------------------------------------
A------------------------------------------------------------------------------
E------------------------------------------------------------------------------

                              Game: Megaman 
                      Stage: Fireman - Harmony guitar
                 Tabbed By: Erik Lundmark, Nicklas Engberg

                                   NOTE!!! 
         Sometimes you must ignore the timing! Just listen to the song!


CONTACT:

www.myspace.com/iceclimbersrocks

iceclimbersrocks@hotmail.com


e-5-5-5-5-5-5-5-5|-------------------------------------------------------------
B----------------|----12--12-10--9----10--10-9--7---9--9-7--6------------------
G----------------|-----------------10-------------7-----------6--6-7--8-9------
D----------------|-x4----------------------------------------------------------
A----------------|-------------------------------------------------------------
E----------------|-------------------------------------------------------------
                                                                              
e-------------------------12-------------------------------10------------------
B-12-14-12-14-12-14-12-14----------10-12-10-12-10-12-10-12---------------------
G----------------------------13-------------------------------11---------------
D-------------------------------14-------------------------------12------------
A------------------------------------------------------------------------------
E------------------------------------------------------------------------------
                                                                              
e--------------------------------------------------------7---------------------
B-9-10-9-10-9-10-9-10-11-12-11-12-11-12-11-12-6/7--7-8-9-----------------------
G------------------------------------------------------------------------------
D------------------------------------------------------------------------------
A------------------------------------------------------------------------------
E------------------------------------------------------------------------------

1 comment on Fireman's Stage

Maybe it's just me

I think this tab is really well done. I'm just a little thrown off at the very end. To me it sounds like there's a few more notes in that final part. I could just be dumb, but it's something that caught my attention