Login or Register to remove this ad. | Advertise Here

Cutman's Stage (Mega Man) Guitar Tab

Submitted: Sep 30, 2007 by Zero (Last updated: Oct 05, 2007)

1
Average: 1 (1 vote)
Download | Listen
Game: Mega Man
Composer(s): Yoshihiro Sakaguchi, Manami Matsumae
Style: Transcription
Series: Mega Man

AutoScroll: Slow | Medium | Fast
This is my first tab so there might be some mistakes.
With that aside, enjoy the tab.

Megaman Cutman

[intro]
e-12-12-12-12-12-12-12-12-12-12-12-12-12-14-16---------]
b------------------------------------------------------]
g------------------------------------------------------]
d------------------------------------------------------]
a------------------------------------------------------]
E------------------------------------------------------]

[part A]
e-17-17----------------------------------------------------]
b--------12-13-15-13-12-13-12------------------------------]
g----------------------------------------------------------]
d------------------------------14--------------------------]
a----------------------------------------------------------]
E----------------------------------------------------------]

e-17-17----------------------------------------------------]
b--------12-13-15-13-12-13-15-17---------------------------]
g----------------------------------------------------------]
d----------------------------------------------------------]
a----------------------------------------------------------]
E----------------------------------------------------------]

[part B]
e------------------------------------------------------------]
b-18--18-20-18-17-15-17----17-18-17-15-13-16--12-12-14-16-17-]
g------------------------------------------------------------]
d------------------------------------------------------------]
a------------------------------------------------------------]
E------------------------------------------------------------]

Then play "part A" again, then go to "part C"

[part C]
e------------------------------------------------------------]
b-18-18-20-18-17-15-17--17-18-17-15-13-12--------------------]
g-----------------------------------------14-13-11-13-14-----]
d------------------------------------------------------------]
a------------------------------------------------------------]
E------------------------------------------------------------]

e-s17-19-17-15--13-15-13-12-13-14-15-----s17-19-17-15-22-20--]
b------------------------------------------------------------]
g------------------------------------------------------------]
d------------------------------------------------------------]
a------------------------------------------------------------]
E------------------------------------------------------------]

e-17-17-17-17-17-17-19-17-17-16------------------------------]
b------------------------------------------------------------]
g------------------------------------------------------------]
d------------------------------------------------------------]
a------------------------------------------------------------]
E------------------------------------------------------------]

And that's all there is to it!