Login or Register to remove this ad. | Advertise Here

Boss Theme (Mega Man) Guitar Tab

Submitted: Dec 10, 2007 by Ice Climbers

0
Download | Listen
Game: Mega Man
Composer(s): Yoshihiro Sakaguchi, Manami Matsumae
Style: 2 or more instruments, Transcription
Series: Mega Man

AutoScroll: Slow | Medium | Fast
                                Game: Megaman 1
                           Stage: Boss - Lead Guitar 
                   Tabbed by: Erik Lundmark, Nicklas Engberg

                                    NOTE!!! 
         Sometimes you must ignore the timing! Just listen to the song! 

CONTACT:

www.myspace.com/iceclimbersrocks

iceclimbersrocks@hotmail.com


e------------------------------------------------------11-11-------------------
B---------------------------------------9---10---11--------------9-11-12-11-9--
G-----------------------8----8-9-8-11-8---8----8----8----------8---------------
D-----------6---7---8----------------------------------------------------------
A-6-7-6-9-6---6---6---6---6----------------------------------------------------
E------------------------------------------------------------------------------
                                                                              

e----------------------------------6-----6-----6-----6--------------4----------
B-12-11-9-12-11-9-12-11-9--7---7-9---9-7---9-7---9-7---9-7--5---5-7---7-5------
G----------------------------6--------------------------------4----------------
D------------------------------------------------------------------------------
A------------------------------------------------------------------------------
E------------------------------------------------------------------------------
                                                                              

e-4-----4-------------------------------11-11----------------------------------
B---7-5---7-5-------------9---10---11------------------------------------------
G--------------8-9-8-11-8---8----8----8----------------------------------------
D------------------------------------------------------------------------------
A------------------------------------------------------------------------------
E------------------------------------------------------------------------------

                                Game: Megaman 1
                          Stage: Boss - Harmony Guitar 
                   Tabbed by: Erik Lundmark, Nicklas Engberg

                                    NOTE!!! 
         Sometimes you must ignore the timing! Just listen to the song! 


CONTACT:

www.myspace.com/iceclimbersrocks

iceclimbersrocks@hotmail.com

------------------------------------------------------11-11-------------------
---------------------------------------9---10---11--------------9-11-12-11-9--
-----------------------8----8-9-8-11-8---8----8----8----------8---------------
-----------6---7---8----------------------------------------------------------
-6-7-6-9-6---6---6---6---6----------------------------------------------------
------------------------------------------------------------------------------
                                                                              

----------------------------------6-----6-----6-----6--------------4----------
-12-11-9-12-11-9-12-11-9--7---7-9---9-7---9-7---9-7---9-7--5---5-7---7-5------
----------------------------6--------------------------------4----------------
------------------------------------------------------------------------------
------------------------------------------------------------------------------
------------------------------------------------------------------------------
                                                                              

-4-----4-------------------------------11-11----------------------------------
---7-5---7-5-------------9---10---11------------------------------------------
--------------8-9-8-11-8---8----8----8----------------------------------------
------------------------------------------------------------------------------
------------------------------------------------------------------------------
------------------------------------------------------------------------------