Login or Register to remove this ad. | Advertise Here

Boss Defeated (Mega Man) Guitar Tab

Submitted: Dec 10, 2007 by Ice Climbers

0
Download | Listen
Game: Mega Man
Composer(s): Yoshihiro Sakaguchi, Manami Matsumae
Style: 2 or more instruments, Transcription
Series: Mega Man

AutoScroll: Slow | Medium | Fast
                                Game: Megaman 1
                        Stage: Bossbeat - Harmony Guitar 
                   Tabbed by: Erik Lundmark, Nicklas Engberg

                                    NOTE!!! 
         Sometimes you must ignore the timing! Just listen to the song! 

CONTACT:

www.myspace.com/iceclimbersrocks

iceclimbersrocks@hotmail.com


e------------------------------------------------------------------------------
B-5-----------------------5--5------------------------5---------------5--------
G---4-------------------4------4-------------------4-----5-5-5--7-5-7----------
D-----6---------------6----------6---------------6-----------------------------
A------7-----------7--------------7-----------7--------------------------------
E---------7-4-0-4-7------------------7-4-0-4-7---------------------------------

                                Game: Megaman 1
                        Stage: Bossbeat - Harmony Guitar 
                   Tabbed by: Erik Lundmark, Nicklas Engberg

                                    NOTE!!! 
         Sometimes you must ignore the timing! Just listen to the song! 


CONTACT:

www.myspace.com/iceclimbersrocks

iceclimbersrocks@hotmail.com


e-12----------------------------12--12----------------------------12-----------
B----12----------------------12--------12----------------------12--------------
G-------13----------------13--------------13----------------13-----------------
D----------14----------14--------------------14----------14--------------------
A-------------14----14--------------------------14----14-----------------------
E----------------12--------------------------------12--------------------------
                                                                              

e-12--12-12-12--14-12-14-16----------------------------------------------------
B------------------------------------------------------------------------------
G------------------------------------------------------------------------------
D------------------------------------------------------------------------------
A------------------------------------------------------------------------------
E------------------------------------------------------------------------------

2 comments on Boss Defeated

holy crap! that was fast

holy crap!
that was fast

That's pretty much

That's pretty much impossible.