Login or Register to remove this ad. | Advertise Here

Bombman's Stage (Mega Man) Bass Tab

Submitted: Nov 12, 2007 by Ice Climbers (Last updated: May 07, 2008)

0
Download | Listen
Game: Mega Man
Composer(s): Yoshihiro Sakaguchi, Manami Matsumae
Style: Transcription
Series: Mega Man

AutoScroll: Slow | Medium | Fast
                                Game: Megaman 
                             Stage: Bombman - Bass
                     Tabbed By: Erik Lundmark, Nicklas Engberg

                                   NOTE!!! 
         Sometimes you must ignore the timing! Just listen to the song! 


CONTACT:

www.myspace.com/iceclimbersrocks

iceclimbersrocks@hotmail.com


G--------------------------------------------|--------------------------------
D--------------------------------------------|-x2------------------------2----
A-4--4-4--4-4-4--4--2-4-2--2-2--2-2-2--2--0-2|-----4--4-4--4-4-4--4--2-4------
E--------------------------------------------|--------------------------------


G-----------------------------------------------------------------------------
D-2-2--2-2-2--2--0-2-5--5-5--5-5--7--7-7--7-7--9--9-9--9-9--9-----------------
A-----------------------------------------------------------------------------
E-----------------------------------------------------------------------------
 
G-----------------------------------------------------------------------------
D-----------------------------------------------------------------------------
A-----------------------------------------------------------------4-4-4-4-4-4-
E-2-2-2-2-2-2-2-2-0-0-0-0-0-0-0-0-2-2-2-2-3-3-3-3-4-4-4-4-4-4-4-4-------------
                                                                              
G-----------------------------------------------------------------------------
D-----------------------------------------------------------------------------
A-4-4-2-2-2-2-2-2-2-2-3-3-3-3-5-5-5-5-----------------------------------------
E-------------------------------------x-x-x-x-x--x-x-x--x--x-x-x--------------