Login or Register to remove this ad. | Advertise Here

Bombman's Stage (Mega Man) Guitar Tab

Submitted: Nov 12, 2007 by Ice Climbers (Last updated: Nov 12, 2007)

5
Average: 5 (2 votes)
Download | Listen
Game: Mega Man
Composer(s): Yoshihiro Sakaguchi, Manami Matsumae
Style: 2 or more instruments, Transcription
Series: Mega Man

AutoScroll: Slow | Medium | Fast

                                 Game: Megaman 
                           Stage: Bombman - Lead Guitar
                     Tabbed By: Erik Lundmark, Nicklas Engberg

                                   NOTE!!! 
         Sometimes you must ignore the timing! Just listen to the song! 

CONTACT:

www.myspace.com/iceclimbersrocks

iceclimbersrocks@hotmail.com

e-----------------------------------------------------------------------------
B-----------------------------------------------------------------------------
G-10--8--13--11----10-8-13--13-13-13-13--13-----------------------------------
D-----------------------------------------------------------------------------
A-----------------------------------------------------------------------------
E-----------------------------------------------------------------------------
                                                                              
e-----------------------------------------------------------------------------
B-----------------------------------6---7--6-4--------------------------------
G-----------6-------------------------6------------------6-------------9------
D--6------6---6-9---6--4--6------6--------------6------6---6--9--6-7-9---9----
A-----8-9--------------------8-9-------------------8-9------------------------
E-----------------------------------------------------------------------------
                                                                              
e-----------------------------------------------------------------------------
B-----------------------------------------------------------------------------
G----------12----------14--16/4-----------------------------------------------
D-12----12----14----14--------------------------------------------------------
A----14----------16-----------------------------------------------------------
E-----------------------------------------------------------------------------
                                                                              
e-----------------------------------------------------------------------------
B-----------4-5-4---4------------------------2-4-2---2------------------------
G-------4-6-------6---6-4-6-4----------1-2-4-------4---4-2-1-0----------------
D-4-6-7-----------------------7-6--2-4-------------------------4-3------------
A-----------------------------------------------------------------------------
E-----------------------------------------------------------------------------
                                                                              
e-----------------------------------------------5-----------------------------
B---------2-4-5-4----------2-4-5-4------------5----9-7-9--7-9-7-6--------6----
G---1-2-4------------2-3-5------------------4---------------------6--6-8------
D-4----------------5----------------------4-----------------------------------
A---------------------------------------4-------------------------------------
E-------------------------------------4---------------------------------------
                                                                              
e-----------------------------------------------------------------------------
B-7-5-7--5-7-5-------------5-----------7-----------8--------------------------
G--------------7-4--4-5-7----5-----------7-----------9------------------------
D------------------------------5-----------7-----------10---------------------
A--------------------------------7-----------8------------10------------------
E----------------------------------8-3--------10-5-----------12-8-------------
                                                                              
e-----------------------------------------------------------------------------
B-10--------------------------------------------------------------------------
G----9------------------------------------------------------------------------
D------11---------------------------------------------------------------------
A---------12------------------------------------------------------------------
E------------12-9-------------------------------------------------------------

                                 Game: Megaman 
                          Stage: Bombman - Harmony Guitar
                     Tabbed By: Erik Lundmark, Nicklas Engberg

                                   NOTE!!! 
         Sometimes you must ignore the timing! Just listen to the song! 


CONTACT:

www.myspace.com/iceclimbersrocks

iceclimbersrocks@hotmail.com

e-----------------------------------------------------------------------------
B-----------------------------------------------------------------------------
G-----------------------------------------------------------------------------
D-11--11--11--9---11--11--11--10-10-10-10--10---------------------------------
A-----------------------------------------------------------------------------
E-----------------------------------------------------------------------------
                                                                              
e-----------------------------------------------------------------------------
B--------------------------------------------------12-------------------------
G-10-------10--13-10-11--11-11-10-------10--13--10----13-11--10-------10------
D----11-13------------------------11-13-------------------------11-13---------
A-----------------------------------------------------------------------------
E-----------------------------------------------------------------------------
                                                                              
e----------------------------------10----------12---11------------------------
B-------------------12----12----12----14----14------------4-------------------
G-13-10-13--9-11-13----13----12----------14-----------------------------------
D-----------------------------------------------------------------------------
A-----------------------------------------------------------------------------
E-----------------------------------------------------------------------------
                                                                              
e-----------------------------------------------------------------------------
B-----------------------------------------------------------------------------
G-----------------------------------------------------------------------------
D-----------------------------------------------------------------------------
A-9---7-9---9-7---6-7---8-9---7-9---10----------------------------------------
E---9-----9-----7-----7-----9-----9-------------------------------------------
                                                                              
e-----------------------------------------------------------------------------
B-----------5---6-4-6--4-6-4--------------------------------------------------
G---------4------------------6--------6--7-6-7--6-7-6--4-----4-5---7---10---13
D-------4----------------------6--6-6--------------------4--4-----------------
A-----4-----------------------------------------------------------------------
E-4-4-------------------------------------------------------------------------

1 comment on Bombman's Stage

Awesome work. Such a colorful

Awesome work. Such a colorful song.