Login or Register to remove this ad. | Advertise Here

Stage Select (Mega Man 2) Guitar Tab

Submitted: Feb 18, 2008 by Zero (Last updated: Mar 24, 2008)

5
Average: 5 (2 votes)
Download | Listen
Game: Mega Man 2
Composer(s): Manami Ietel, Manami Matsumae, Ogeretsu Kun
Style: Transcription
Series: Mega Man

AutoScroll: Slow | Medium | Fast
Mega Man 2
Stage Select


e------------------------------------------]
b-----6------9------8-----7----------------]
g---6------6------6-----6------6-9-10------]
d-8------8------8-----8------8-------------]
a------------------------------------------]
e------------------------------------------]



e-----6------8------7------6----------------]
b---6------6------6------6------6-8-9-------]
g-6------6------6------6------6-------------]
d-------------------------------------------]
a-------------------------------------------]
e-------------------------------------------]

Repeat

1 comment on Stage Select

this is great

5

i love this