Login or Register to remove this ad. | Advertise Here

Flashman's Stage (Mega Man 2) Guitar Tab

Submitted: Mar 23, 2008 by Zelos (Last updated: Oct 07, 2009)

5
Average: 5 (4 votes)
Download | Listen
Game: Mega Man 2
Composer(s): Manami Ietel, Manami Matsumae, Ogeretsu Kun
Style: Transcription
Series: Mega Man

AutoScroll: Slow | Medium | Fast
Flashman's Stage  
~Mega Man II~
Composed by: Manami Ietel
Arranged by: Zelos                                 


Guitar 
BPM = 152  
Difficulty: Easy (Most of the notes are just some palm-stops)


      E.  T T T S. T S. E.  E.  S. T    E  T T E  T T S S S S S S S S S S  
E||----------------------------------|------------------------------------|
B||----------------------------------|------------------------------------|
G||*---------------------------------|------------------------------------|
D||*---------------------------------|------------------------------------|
A||----------------2----5---4---0----|--3--L---2--L-------0---------------|
E||---0---L---3----------------------|----------------3-------2---0-2-3-0-|


  E  S S S S E  S S S S Q       E  S S S S S E  T T  T S. T S. S S  4x
-----------------------------|---------------7--7-------------------||
-----7-7-7-8----7-7-7-8------|-----7-7-7-8----------10----8----7----||
-----------------------------|-------------------------------------*||
-----------------------------|-------------------------------------*||
-----------------------------|--------------------------------------||
-----------------------------|--------------------------------------||


  E.  T T S S T S. E  T T E.  S S    E  T T E.  S S S S S S S S S S  
----------------------------------|---------------------------------|
----------------------------------|---------------------------------|
----------------------------------|---------------------------------|
----------------------L-----------|---------------------------------|
--------------2----5------4---0---|--3--L---2-------0---------------|
--0---L---3-----------------------|-------------3-------2---0-2-3-0-|


  E  S S S S E  S S S S Q       S T S. E  T S.  T T E.  Q    S  
-----------------------------|----------------------7----------|
-----7-7-7-8----7-7-7-8------|--7-7----7--8----10--------------|
-----------------------------|---------------------------------|
-----------------------------|---------------------------------|
-----------------------------|---------------------------------|
-----------------------------|---------------------------------|


    E  E  E  E  Q    E  E     E  S. E  T H        E   
|---------7--5--7----5-----|--5--7-------------------|
|------5----------------8--|-------------5--------8--|
|*-------------------------|-------------------------|
|*-------------------------|-------------------------|
|--------------------------|-------------------------|
|--------------------------|-------------------------|


  E  E  E  E  S. T E  E  E     Q.     S. E  T E  E  S. T  
----------------------------|-----------------------5----|
--7-----7-----7----5-----5--|--L------L-------5--8-------|
----------------------7-----|----------------------------|
----------------------------|----------------------------|
----------------------------|----------------------------|
----------------------------|----------------------------|


  E  E  E  E  Q    E  E     E  S. E  T H        E   
--------7--5--7----5-----|--5--7-------------------|
-----5----------------8--|-------------5--------8--|
-------------------------|-------------------------|
-------------------------|-------------------------|
-------------------------|-------------------------|
-------------------------|-------------------------|


  S. E  T E  E  E  E  E  E     H        E  S. T E  E      W                 
-------------------5--------|----------------------7--|--10----------------|
--7-------7-----8-----7--5--|--L-----------5----8-----|--------------------|
----------------------------|-------------------------|--------------------|
----------------------------|-------------------------|--------------------|
----------------------------|-------------------------|--------------------|
----------------------------|-------------------------|--------------------|


  H        H           E  Q.     T S. E  E   E   
--9--------8--------|---------------------------|
--------------------|--8-----------------8--10--|
--------------------|-----9------L----9---------|
--------------------|---------------------------|
--------------------|---------------------------|
--------------------|---------------------------|


   E   E   E   E   E   S.T S. T  E      W                   H        H         
------------------------------------|--10----------------|--9--------8--------|
--11--12--11--12--10----------------|--------------------|--------------------|
----------------------12---9--------|--------------------|--------------------|
--------------------------------12--|--------------------|--------------------|
------------------------------------|--------------------|--------------------|
------------------------------------|--------------------|--------------------|


  E  Q.     S. T  E   E   E      E   E   E   E   E   E   E   E     
-----------------------------|--12--------------12--15--17--19---||
--8----------------------12--|------12--12--12-------------------||
-----9------L--------12------|----------------------------------*||
-----------------14----------|----------------------------------*||
-----------------------------|-----------------------------------||
-----------------------------|-----------------------------------||




Duration Legend
---------------
W - whole
H - half
Q - quarter
E - 8th
S - 16th
. - note dotted
|-n-|  - n-tuplets


Tablature Legend
----------------
L - tied note

8 comments on Flashman's Stage

Alternate Main Riff

A|--------2-5-4-0-3-2----1-0---------
E|0-0-3-----------------3------3p2-3

asm

great tab dood

What's asm?

What's asm?

abgr

It's what you get when you randomly smash your fingers on the keyboard because you don't know what to write in the "Subject"-line.

Haha. But on this tab they

Haha.

But on this tab they left a comment saying "this is very good asm work", so I assumed it meant something and wasn't just gibberish.

Oh well.

I was just guessing ^^ I'm as

I was just guessing ^^ I'm as clueless as you!

asm

English it's not my native lang,
but it seems that asm means awesome ( maybe like it sounds... asm)

yeah

yeah its short for awesome