Login or Register to remove this ad. | Advertise Here

Dr. Wily Stage 1 (Mega Man 2) Guitar Tab

Submitted: Apr 14, 2008 by Calebelijah (Last updated: Apr 14, 2008)

5
Average: 5 (6 votes)
Download | Listen
Game: Mega Man 2
Composer(s): Manami Ietel, Manami Matsumae, Ogeretsu Kun
Style: 2 or more instruments, Transcription
Series: Mega Man

AutoScroll: Slow | Medium | Fast
                              Megaman 2 Dr. Wily                                


Guitar 1
     E   S  S  E   S  S  E   E  E   S  S     E   S  S  E   E  E   E   E   E   
E||--------------------------------------|-----------------------------------|
B||--------------------------------------|-----------------------------------|
G||--------------------------------------|-----------------------13--11--13--|
D||-----14-14-14--14-14-14--11-----11-11-|--14--14-14-14--11-----------------|
A||--------------------------------------|-----------------------------------|
E||--------------------------------------|-----------------------------------|
 
 
  E   S  S  E   S  S  E   E  E   E     E   E  E   E  E   E  Q     
------------------------------------|----------------------------|
------------------------------------|----------------------------|
--------------------------------13--|-----11------------11-------|
-----14-14-14--14-14-14--11---------|------------14--------------|
------------------------------------|----------------------------|
------------------------------------|----------------------------|
 
 
  E   S  S  E   S  S  E   E  E   E     E   E  E   E  E   E  E   E   
------------------------------------|------------------------------|
------------------------------------|------------------------------|
-----11-11-11--11-11-11---------13--|-----11-----------------------|
-------------------------13---------|------------14-----13-----11--|
------------------------------------|------------------------------|
------------------------------------|------------------------------|
 
 
  E   E   E   E   Q.      E     E   E   E   E   Q     E   E   
-----------------------------|-----------------------11--12--|
-------------12--11----------|-------------12--11------------|
---------13------------------|---------13--------------------|
-----11------------------11--|-----11------------------------|
-----------------------------|-------------------------------|
-----------------------------|-------------------------------|
 
 
  E   S  S  E   S  S  E   E  E   S  S     E   S  S  E   E  E   E   E   E   
--------------------------------------|-----------------------------------|
--------------------------------------|-----------------------------------|
--------------------------------------|-----------------------13--11--13--|
-----14-14-14--14-14-14--11-----11-11-|--14--14-14-14--11-----------------|
--------------------------------------|-----------------------------------|
--------------------------------------|-----------------------------------|
 
 
  E   S  S  E   S  S  E   E  E   E     E   E  E   E  E   E  Q     
------------------------------------|----------------------------|
------------------------------------|----------------------------|
--------------------------------13--|-----11------------11-------|
-----14-14-14--14-14-14--11---------|------------14--------------|
------------------------------------|----------------------------|
------------------------------------|----------------------------|
 
 
  E   S  S  E   S  S  E   E  E   E     E   E  E   E  E   E  E   E   
------------------------------------|------------------------------|
------------------------------------|------------------------------|
-----11-11-11--11-11-11---------13--|-----11-----------------------|
-------------------------13---------|------------14-----13-----11--|
------------------------------------|------------------------------|
------------------------------------|------------------------------|
 
 
  E   E   E   E   Q.      E     E   E   E   E   Q     E   E   
-----------------------------|-------------------------------|
-------------12--11----------|-------------12--11----12--14--|
---------13------------------|---------13--------------------|
-----11------------------11--|-----11------------------------|
-----------------------------|-------------------------------|
-----------------------------|-------------------------------|
 
 
  H.            E   E     E   Q     Q     Q.         H         E   E  Q     
-------------------12--|--L----------------------|-------------------------|
--L------------12------|-----14----12----14------|--12--------12--14--L----|
-----------------------|-------------------------|-------------------------|
-----------------------|-------------------------|-------------------------|
-----------------------|-------------------------|-------------------------|
-----------------------|-------------------------|-------------------------|
 
 
   E   E   E   E  E   E   E   E      H.            E   E   
---------------------------------|--------------------12--|
-----------------------------12--|--14------------12------|
--13--14--13-------------13------|------------------------|
--------------14-----14----------|------------------------|
---------------------------------|------------------------|
---------------------------------|------------------------|
 
 
  E   Q     Q     Q.         H         E   E   E   E   
--L----------------------|----------------------------|
-----14----12----14------|--12--------12------12--13--|
-------------------------|----------------13----------|
-------------------------|----------------------------|
-------------------------|----------------------------|
-------------------------|----------------------------|
 
 
  E   E   E   E   H           E   S  S  E   S  S  E   E  E   S  S  
-------------11--16--------|--------------------------------------|
-----13--13----------------|--------------------------------------|
---------------------------|--------------------------------------|
---------------------------|-----14-14-14--14-14-14--11-----11-11-|
---------------------------|--------------------------------------|
---------------------------|--------------------------------------|
 
 
   E   S  S  E   E  E   E   E   E     E   S  S  E   S  S  E   E  E   E   
-----------------------------------|------------------------------------|
-----------------------------------|------------------------------------|
-----------------------13--11--13--|--------------------------------13--|
--14--14-14-14--11-----------------|-----14-14-14--14-14-14--11---------|
-----------------------------------|------------------------------------|
-----------------------------------|------------------------------------|
 
 
  E   E  E   E  E   E  Q       E   S  S  E   S  S  E   E  E   E   
----------------------------|------------------------------------|
----------------------------|------------------------------------|
-----11------------11-------|-----11-11-11--11-11-11---------13--|
------------14--------------|-------------------------13---------|
----------------------------|------------------------------------|
----------------------------|------------------------------------|
 
 
  E   E  E   E  E   E  E   E     E   E   E   E   Q.      E   
------------------------------|-----------------------------|
------------------------------|-------------12--11----------|
-----11-----------------------|---------13------------------|
------------14-----13-----11--|-----11------------------11--|
------------------------------|-----------------------------|
------------------------------|-----------------------------|
 
 
  E   E   E   E   Q     E   E     H         Q     E   E   
-------------------------------|-------------------------|
-------------12--11----12--14--|--L--------14----12--14--|
---------13--------------------|-------------------------|
-----11------------------------|-------------------------|
-------------------------------|-------------------------|
-------------------------------|-------------------------|
 
 
  E   Q.      E   E   E   E      H         Q     E   E   
-----12------16--14--12------|--------------------------|
-------------------------16--|--14--------14----12--14--|
-----------------------------|--------------------------|
-----------------------------|--------------------------|
-----------------------------|--------------------------|
-----------------------------|--------------------------|
 
 
  E   Q.      E   E   E  E      H         E   E   E   E   
-----12------12--14--12-----|------------------------16--|
----------------------------|--16--------16--14--12------|
----------------------------|----------------------------|
----------------------------|----------------------------|
----------------------------|----------------------------|
----------------------------|----------------------------|
 
 
  Q     E  E   E  E   E  E      E   E   E   E  H         
--L----14-----12-----11-----|--11--12--11---------------|
----------------------------|--------------14--L--------|
----------------------------|---------------------------|
----------------------------|---------------------------|
----------------------------|---------------------------|
----------------------------|---------------------------|
 
 
  H.            E   E     H.            E   E     E   Q     Q     Q.      
-----------------------|-------------------12--|--L----------------------|
--L------------12--14--|--L------------12------|-----14----12----14------|
-----------------------|-----------------------|-------------------------|
-----------------------|-----------------------|-------------------------|
-----------------------|-----------------------|-------------------------|
-----------------------|-----------------------|-------------------------|
 
 
   H         E   E  Q        E   E   E   E  E   E   E   E   
-------------------------|---------------------------------|
--12--------12--14--L----|-----------------------------12--|
-------------------------|--13--14--13-------------13------|
-------------------------|--------------14-----14----------|
-------------------------|---------------------------------|
-------------------------|---------------------------------|
 
 
   H.            E   E     E   Q     Q     Q.         H         E   E   E   E   
--------------------12--|--L----------------------|----------------------------|
--14------------12------|-----14----12----14------|--12--------12------12--13--|
------------------------|-------------------------|----------------13----------|
------------------------|-------------------------|----------------------------|
------------------------|-------------------------|----------------------------|
------------------------|-------------------------|----------------------------|
 
 
  E   E   E   E   Q.      E     E   E   E   E   Q     E   E   
-------------11--16----------|-------------------------------|
-----13--13------------------|-----------------------14--12--|
-----------------------------|-------------------------------|
-------------------------14--|-----14--14--13--14------------|
-----------------------------|-------------------------------|
-----------------------------|-------------------------------|
 
 
  E   Q     Q     Q     E     E   E   E  E   E  Q     E   
---------------------------|-----------------------------|
--L------------------------|-----------------------------|
-----14----13----11----11--|-----13--13-----13-------11--|
-----------------------13--|-----14--14-----14-------13--|
---------------------------|-----------------------------|
---------------------------|-----------------------------|
 
 
  E   E   E  E   E  E   E   E     E   E   E   E   Q     E   E   
-------------------------------|-------------------------------|
-------------------------------|-----------------------14--12--|
-----13--13-----13-----11------|-------------------------------|
-----14--14-----14---------14--|-----14--14--13--14------------|
-------------------------------|-------------------------------|
-------------------------------|-------------------------------|
 
 
  E   Q     Q     Q    E      E   E   E   E  H           W                    
--------------------------|---------------------------|---------------------||
--L-----------------------|---------------------------|---------------------||
-----14----13----11-------|---------------------------|-------------------*-||
--------------------------|--13--14--13--11--L--------|--L----------------*-||
--------------------------|---------------------------|---------------------||
--------------------------|---------------------------|---------------------||
 
 
 
 
Duration Legend
---------------
W - whole
H - half
Q - quarter
E - 8th
S - 16th
T - 32nd
X - 64th
. - note dotted
|-n-|  - n-tuplets
 
 
Tablature Legend
----------------
L - tied note



---------------------------------------------


                              Megaman 2 Dr. Wily                                


Guitar 2
     E  S S E  S S E  E  E  E     E  S S E  E  E  E  E  E   
E||----------------------------|---------------------------|
B||----------------------------|------------------5--4--5--|
G||-----6-6-6--6-6-6-----------|--6--6-6-6--------6--4--6--|
D||-------------------6-----6--|------------6--------------|
A||----------------------------|---------------------------|
E||----------------------------|---------------------------|
 
 
  E  S S E  S S E  E  E  E     E  E  E  E  E  E  Q     
----------------------------|-------------------------|
-------------------------5--|-----4-----2-----4-------|
-----6-6-6--6-6-6--------6--|-----4-----2-----4-------|
-------------------6--------|-------------------------|
----------------------------|-------------------------|
----------------------------|-------------------------|
 
 
  E  S S E  S S E  E  E  E     E  E  E  E  E  E  E  E           
----------------------------|--------------------------|-------|
-----4-4-4--4-4-4--------5--|-----4--------------------|-------|
-------------------4-----4--|-----4-----6-----4--------|-------|
----------------------------|-----------6-----6-----6--|-------|
----------------------------|-----------------------4--|-------|
----------------------------|--------------------------|-------|
 
 
  Q    Q    Q    E  E     E  S S E  S S E  E  E  S S  
-----------------7--9--|-----------------------------|
-----------------------|-----------------------------|
-----------------------|-----6-6-6--6-6-6------------|
-----------------------|-------------------6-----6-6-|
-----------------------|-----------------------------|
-----------------------|-----------------------------|
 
 
  E  S S E  E  E  E  E  E     E  S S E  S S E  E  E  E   
---------------------------|----------------------------|
------------------5--4--5--|-------------------------5--|
--6--6-6-6--------6--4--6--|-----6-6-6--6-6-6--------6--|
------------6--------------|-------------------6--------|
---------------------------|----------------------------|
---------------------------|----------------------------|
 
 
  E  E  E  E  E  E  Q       E  S S E  S S E  E  E  E   
-------------------------|----------------------------|
-----4-----2-----4-------|-----4-4-4--4-4-4--------5--|
-----4-----2-----4-------|-------------------4-----4--|
-------------------------|----------------------------|
-------------------------|----------------------------|
-------------------------|----------------------------|
 
 
  E  E  E  E  E  E  E  E                                                   
--------------------------|-------|-------|-------|-------|-------|-------|
-----4--------------------|-------|-------|-------|-------|-------|-------|
-----4-----6-----4--------|-------|-------|-------|-------|-------|-------|
-----------6-----6-----6--|-------|-------|-------|-------|-------|-------|
-----------------------4--|-------|-------|-------|-------|-------|-------|
--------------------------|-------|-------|-------|-------|-------|-------|
 
 
                                  H.           E  E     E  Q    Q    Q    E   
-------|-------|-------|-------|---------------------|-----------------------|
-------|-------|-------|-------|---------------------|-----------------------|
-------|-------|-------|-------|---------------------|-----------------------|
-------|-------|-------|-------|--6---------------9--|--L--7----6----7----6--|
-------|-------|-------|-------|---------------9-----|-----------------------|
-------|-------|-------|-------|---------------------|-----------------------|
 
 
  H.           E  E     E  Q    Q    Q    E     H        E  E  E  E   
---------------------|-----------------------|-----------------------|
---------------------|-----------------------|-----------------------|
---------------------|-----------------------|-----------------------|
--L---------------9--|--L--7----6----7-------|-----------------6-----|
---------------9-----|--------------------7--|--L--------7--9-----6--|
---------------------|-----------------------|-----------------------|
 
 
  W                                   E  S S E  S S E  E  E  S S  
-------------------|-------|-------|-----------------------------|
-------------------|-------|-------|-----------------------------|
-------------------|-------|-------|-----6-6-6--6-6-6------------|
-------------------|-------|-------|-------------------6-----6-6-|
--L----------------|-------|-------|-----------------------------|
-------------------|-------|-------|-----------------------------|
 
 
  E  S S E  E  E  E  E  E     E  S S E  S S E  E  E  E   
---------------------------|----------------------------|
------------------5--4--5--|-------------------------5--|
--6--6-6-6--------6--4--6--|-----6-6-6--6-6-6--------6--|
------------6--------------|-------------------6--------|
---------------------------|----------------------------|
---------------------------|----------------------------|
 
 
  E  E  E  E  E  E  Q       E  S S E  S S E  E  E  E   
-------------------------|----------------------------|
-----4-----2-----4-------|-----4-4-4--4-4-4--------5--|
-----4-----2-----4-------|-------------------4-----4--|
-------------------------|----------------------------|
-------------------------|----------------------------|
-------------------------|----------------------------|
 
 
  E  E  E  E  E  E  E  E                                                   
--------------------------|-------|-------|-------|-------|-------|-------|
-----4--------------------|-------|-------|-------|-------|-------|-------|
-----4-----6-----4--------|-------|-------|-------|-------|-------|-------|
-----------6-----6-----6--|-------|-------|-------|-------|-------|-------|
-----------------------4--|-------|-------|-------|-------|-------|-------|
--------------------------|-------|-------|-------|-------|-------|-------|
 
 
                          H        Q.      E     E   E   E  E   Q     E  E   
-------|-------|-------|----------------------|-----------------------------|
-------|-------|-------|----------------------|----------------------10--9--|
-------|-------|-------|----------------------|-----------------------------|
-------|-------|-------|------------------11--|-----11--11--9--11-----------|
-------|-------|-------|----------------------|-----------------------------|
-------|-------|-------|----------------------|-----------------------------|
 
 
  E   Q    Q    Q     E     E   E   E  E   E  Q     E   
-------------------------|-----------------------------|
--L----------------------|-----------------------------|
-----11----9----8--------|-----------------------------|
-------------------------|-----------------------------|
----------------------9--|-----11--11-----11--------9--|
---------------------11--|-----12--12-----12-------11--|
 
 
  E   E   E  E   E  E   E   E     E   E   E  E   Q     E  E   
-------------------------------|-----------------------------|
-------------------------------|----------------------10--9--|
-------------------------------|-----------------------------|
-----------------------13--11--|-----11--11--9--11-----------|
-----11--11-----11-------------|-----------------------------|
-----12--12-----12-------------|-----------------------------|
 
 
  E   Q    Q    Q    E     E   E  E   E  H           W                    
--L---------------------|-------------------------|---------------------||
------------------------|-------------------------|---------------------||
-----11----9----8-------|-------------------------|-------------------*-||
------------------------|--9--11--9---------------|-------------------*-||
------------------------|------------11--L--------|--L------------------||
------------------------|-------------------------|---------------------||
 
 
 
 
Duration Legend
---------------
W - whole
H - half
Q - quarter
E - 8th
S - 16th
T - 32nd
X - 64th
. - note dotted
|-n-|  - n-tuplets
 
 
Tablature Legend
----------------
L - tied note

1 comment on Dr. Wily Stage 1

Wow, great job man. Right

5

Wow, great job man. Right down to the note. 5-star!