Login or Register to remove this ad. | Advertise Here

Airman's Stage (Mega Man 2) Bass Tab

Submitted: Mar 25, 2008 by goldsac (Last updated: May 07, 2008)

0
Download | Listen
Game: Mega Man 2
Composer(s): Manami Ietel, Manami Matsumae, Ogeretsu Kun
Style: Transcription
Series: Mega Man

AutoScroll: Slow | Medium | Fast
Title:     Air Man
Game:      Mega Man 2
Composer:  Manami Ietel (Manami Matsumae), Ogeretsu Kun, 
           and Yuukichan's Papa (Yoshihiro Sakaguchi)
Year:      1988
Tabber:    goldsac
Notes:

4 strings; Standard tuning (EADG)

4/4 Time
    
    - The slides are pretty much optional - they are actually electronic 
      'drum slides' which occur throughout the song. I just picked 
      some select slides that would fit in nicely to fill in spaces.
    - You slide down to whatever tone feels right and not necessarily the 
      ending notes I've provided. I only include ending notes on slides 
      b/c as far as I know Guitar Pro requires to balance out the beats 
      of the measure.
 
    - The timing to Section B is kinda cumbersome, but those are the real notes. 
      I check each note!

_______________________________________________________________________________


Fast and Steady       bpm=170

Intro

     E  S S S S S S S S S S S S S S    E  S S S S S S S S S S S S S S  
G||---------------------------------|---------------------------------|
D||--8------6-8---8---8-------6---8-|-----------------------6---6---8-|
A||-------8---------------8---------|--9----9---9---8---8-------------|
E||-------------------------4-------|---------9-----------------------|


  S E  S S S S S S S S S S S S S    E  S S S S S S S S S S S S S S  
---------------------------------|---------------------------------|
--L------6-8---8---8-------6---8-|-----------------------6---6---8-|
-------8---------------8---------|--9----9---9---8---8-------------|
-------------------------4-------|---------9-----------------------|

                                                   Section A

  S S  S  S  T   T  T   T  S  S S S S S S S S S    S E  S S S S S S S S S S S S S  
------15s-6---------------15s-6-----------------||---------------------------------|
--L---------------------------------------6---8-||--L------6-8---8---8-------7---7-|
--------------------------------9-9-9-9-9-------||-------8---------------8---------|
------------13s-11-13s-11-----------------------||-------------------------4-------|


  E  S S S S S S S S S S S S S S    E  S S S S S S S S S S S S S S  
---------------------------------|---------------------------------|
--8------6-8---8---8-------7---7-|--6------4-6---6---6-------4---5-|
-------8---------------8---------|-------6---------------6---------|
-------------------------4-------|-------------------------2-------|


  E  S S S S S S S S S S S  S   S S    E  S S S S S S S S S S S S S S  
---------------------------22s-10---|---------------------------------|
--6------4-6---6---6----------------|--8------6-8---8---8-------7---7-|
-------6---------------6------------|-------8---------------8---------|
------------------------------------|-------------------------4-------|


  E  S S S S S S S S S S S S S S    E  S S S S S S S S S S S S S S  
---------------------------------|---------------------------------|
--8------6-8---8---8-------7---7-|--6------4-6---6---6-------4---5-|
-------8---------------8---------|-------6---------------6---------|
-------------------------4-------|-------------------------2-------|

                                      Section B

  E  S S S S S S S S S S S  S   S S    S S S S S S  S   S S E  S S S S S  
---------------------------22s-10---||--------6-----22s-10----------3-----|
--6------4-6---6---6----------------||----4-----4----------4------4-----6-|
-------6---------------6------------||--------------------------4---------|
------------------------------------||------------------------------------|


  S S S S S S E  S S S S S S S S    S S S S S S  S   S S E  S S S S S  
--------8------------------------|--------6-----22s-10----------3-----|
----6-----6------6-6---6---6---4-|----4-----4----------4------4-----6-|
---------------------------------|--------------------------4---------|
---------------------------------|------------------------------------|


  S S S S S S E  S S S S S S S S    
--------8-------------------------||
----6-----6------6-6---6---6-8---*||
-------------------------------9-*||
----------------------------------||




Duration Legend
---------------
W - whole
H - half
Q - quarter
E - 8th
S - 16th
T - 32nd
X - 64th
. - note dotted
L - tied note