Login or Register to remove this ad. | Advertise Here

Underworld (Legend of Zelda) Bass Tab

Submitted: Oct 26, 2008 by auriplane

5
Average: 5 (1 vote)
Download | Listen
Game: Legend of Zelda
Composer(s): Koji Kondo
Style: Transcription
Series: Legend of Zelda

This song is also called Dungeon

AutoScroll: Slow | Medium | Fast
                      Legend of Zelda - Dungeon BASS TAB
                              Song by Koji Kondo

                   Tabbed by auriplane (crystal@panix.com)

No real comments on this tab, other than be careful of the last
measure which has an extra beat.

G |------------|------------|------------|------------|
D |------------|------------|------------|12----------|
A |10----------|------------|13----------|------------|
E |------------|------------|------------|------------|

G |------------|------------|------------|------------|
D |11----------|------------|------------|------------|
A |------------|9-----------|------------|------------|
E |------------|------------|------------|------------|

G |------------|------------|------------|------------|
D |------------|------------|------------|------11----|
A |------------|------------|---------11-|------------|
E |13----------|------------|------------|------------|

G |------------|------------|------------|------------|
D |10----------|------------|------------|------------|
A |------------|------------|------------|------------|
E |------------|12----------|------------|------------|

G |------------|------------|------------|------------|
D |------------|------------|---------13-|------12----|
A |------------|------------|10----------|------------|
E |11-10-11----|------------|------------|------------|

G |------------|------------|------------|------------|
D |------------|------------|---------12-|------11----|
A |------------|------------|10----------|------------|
E |10-9--10----|------------|------------|------------|

G |------------|------------|---------11-|---11-14-11-|------------|
D |------------|---10----10-|13-10-13----|13----------|13-10-------|
A |---9--12-9--|12----12----|------------|------------|------12-9--|
E |10----------|------------|------------|------------|------------|



1 comment on Underworld

^^

this is good xD the end part is little weird tho i think i got it right >__>