Login or Register to remove this ad. | Advertise Here

Triforce (Legend of Zelda) Guitar Tab

Submitted: Aug 15, 2008 by hslesperance

3.75
Average: 3.8 (4 votes)
Download | Listen
Game: Legend of Zelda
Composer(s): Koji Kondo
Style: 2 or more instruments, Transcription
Series: Legend of Zelda

AutoScroll: Slow | Medium | Fast
The Legend of Zelda
Get Triforce Fanfare
Composed by Koji Kondo
Tabbed by hslesperance
8/14/08

Tempo= 150

Guitar 1 - Standard
Guitar 2 - Drop D

e-----------------------------------------------------------3------------
B---------------------------0-1-3----------------3-----------------------
G--------0--------------0-2---------------------------------------------- Guitar 1
D---0--------------------------------------------------------------------
A------------------------------------------------------------------------
E------------------------------------------------------------------------

e------------------------------------------------------------------------
B------------------------------------------------------------------------
G---------------------------------------------------------------------0-- Guitar 2
D--------------------------------------------0-------------------0-------
A--------------------------------------0-2-3-----------------------------
D--------5----0----5------------3----5----------------------1------------

e--------7-8-10-------------------------3--------------------------------
B---8-10-------------------------3-3--3----------------------------------
G------------------------------------------------------------------------ Guitar 1
D------------------------------------------------------------------------
A------------------------------------------------------------------------
E------------------------------------------------------------------------

e------------------------------------------------------------------------
B------------------------------------------------------------------------
G------------------------------------------------------------------------ Guitar 2
D--------------------------0---------------------------------------------
A--------------------0-2-3--------------2--------------------------------
D------------0-----5-------------4------0--------------------------------

4 comments on Triforce

Cute!

4

Simple and Nice

How many guitars

How many guitars do you need to play this song 2 or 1

How many guitars

1

How many guitars do you need to play this song 2 or 1

Two guitars. The first two

Two guitars. The first two staves are played at the same time with two different guitars and then the third and fourth staves are played simultaneously.