Login or Register to remove this ad. | Advertise Here

Secret Discovery (Legend of Zelda) Guitar Tab

Submitted: Jun 05, 2008 by Freekepeek (Last updated: Feb 04, 2012)

4.25
Average: 4.3 (4 votes)
Download | Listen
Game: Legend of Zelda
Composer(s): Koji Kondo
Style: Transcription
Series: Legend of Zelda

AutoScroll: Slow | Medium | Fast
E|----------------------20----------------
B|-20-19-16-------17-21-------------------
G|----------------------------------------
D|----------19-18-------------------------
A|----------------------------------------
E|----------------------------------------

octave lower

E|---------------8-------------------
B|-8-7---------9---------------------
G|-----8-----9-----------------------
D|-------7-6-------------------------
A|-----------------------------------
E|-----------------------------------

4 comments on Secret Discovery

Lol i just realized, the top

Lol i just realized, the top riff should be starting in 20, 19 and so on... my bad... The bottom one is correct though.

like

like this?

E|----------------------20----------------
B|-20-19-16-------17-20-------------------
G|----------------------------------------
D|----------19-18-------------------------
A|----------------------------------------
E|----------------------------------------

I know this is an old post,

I know this is an old post, but just to clarify:
I think the 17-20 should be a 17-21 for a Ab instead of a G.

2nd is right except i though

2nd is right except i though it was

E|--------------8--------------------
B|-8-7-------------------------------
G|-----8-----9-----------------------
D|-------7-6-------------------------
A|-----------------------------------
E|-----------------------------------