Login or Register to remove this ad. | Advertise Here

Overworld (Legend of Zelda) Bass Tab

Submitted: Sep 30, 2007 by Calebelijah (Last updated: Sep 20, 2009)

5
Average: 5 (4 votes)
Download | Listen
Game: Legend of Zelda
Composer(s): Koji Kondo
Style: Transcription
Series: Legend of Zelda

This song is also called Main Theme

Click here for a video example.

AutoScroll: Slow | Medium | Fast
Bass Line
     E.  S S T S S T E.  S S T S S T    E.  S S T S S T E.  S S T S S T
G||----------------------------------|----------------------------------|
D||--8-----8---8-8---8-----8---8-8---|--6-----6---6-6---6-----6---6-6---|
A||----------------------------------|----------------------------------|
E||----------------------------------|----------------------------------|

  E.  S S T S S T E.  S S T S S T    E  E  S. E  T S. E  T E  E
----------------------------------|------------------------------|
--4-----4---4-4---4-----4---4-4---|--4-----3-------3-------5--7--|
----------------------------------|------------------------------|
----------------------------------|------------------------------|

  S. E  T S T S S T S. E  T S. E  T    S. E  T S T S S T S. E  T S. E  T
------------------------------------|------------------------------------|
--8-------8---8-6---8-------8-------|--6-------6---6-4---6-------6-------|
------------------------------------|------------------------------------|
------------------------------------|------------------------------------|

  S. E  T S T S S T S. E  T S. E  T    E  E  S. S S. E  E  E  E
------------------------------------|--6-----6--6-4--6-----6-----|
--4-------4---4-2---4-------4-------|----------------------------|
------------------------------------|----------------------------|
------------------------------------|----------------------------|

  E  E  S. S S. E  E  S. S S.    E  E  S. S S. E  E  S. S S.
------------------------------|------------------------------|
--9-----9--9-8--9-----9--9-9--|--8-----8--8-6--8-----8--8-8--|
------------------------------|------------------------------|
------------------------------|------------------------------|

   E  E   S. S S.  E  E   S. S  S.   S. E  T S. E  T S. E  T  E  E
----------------------------------|---------------------------------|
--10-----10-10-8--10-----10-10-10-|------------------------------7--|
----------------------------------|--8-------8-------8-------10-----|
----------------------------------|---------------------------------|

  S. E  T S T S S T S. E  T S. E  T    S. E  T S T S S T S. E  T S. E  T
------------------------------------|------------------------------------|
--8-------8---8-6---8-------8-------|--6-------6---6-4---6-------6-------|
------------------------------------|------------------------------------|
------------------------------------|------------------------------------|

  S. E  T S T S S T S. E  T S. E  T    S. E  T S T S S. S. E  T S. E  T
------------------------------------|-----------------------------------|
------------------------------------|-----------------------------------|
--9-------9---9-7---9-------9-------|--8-------8---8-6--8-------8-------|
------------------------------------|-----------------------------------|

   S T  S  S T  S T  S  S T  Q    Q        S.E  T  S T  S  S T  S.Q.     T
--------------------15-18---21---------|--22-------------------------------|
----------11---14----------------------|-----------------------------------|
-------13------------------------------|-----------------------------------|
--12-----------------------------------|----------13---13-13---13----------|

   S T  S  S T  S T  S  S T  Q    Q        S.E  T  S T  S  S T  S.Q.     T
--------------------15-18---21---------|--22-------------------------------|
----------11---14----------------------|-----------------------------------|
-------13------------------------------|-----------------------------------|
--12-----------------------------------|----------13---13-13---13----------|

  S. E  T S T S S T S. E  T S T S S T    S. E  T S T S S T S. E  T S T S S T
--------------------------------------|--------------------------------------|
--9-------9---9-8---9-------9---9-9---|--8-------8---8-6---8-------8---8-8---|
--------------------------------------|--------------------------------------|
--------------------------------------|--------------------------------------|

   S.E  T  S T  S  S T  S.E  T  S T  S  S T    E  E  E  E  E  E   E  E
--------------------------------------------|---------------------------||
--10------10---10-10---10------10---10-10---|------------------------7--||
--------------------------------------------|--8-----8-----8-----10-----||
--------------------------------------------|---------------------------||

Duration Legend
---------------
W - whole
H - half
Q - quarter
E - 8th
S - 16th
T - 32nd
X - 64th
. - note dotted
|-n-|  - n-tuplets

Tablature Legend
----------------
L - tied note

1 comment on Overworld

This is awesome. I wish I

5

This is awesome. I wish I had 22 frets on the bass I'm playing right now though :-) Five stars