Login or Register to remove this ad. | Advertise Here

Ending (Legend of Zelda) Guitar Tab

Submitted: Aug 23, 2008 by hslesperance (Last updated: Oct 22, 2009)

5
Average: 5 (2 votes)
Download | Listen
Game: Legend of Zelda
Composer(s): Koji Kondo
Style: Fingerstyle, Transcription
Series: Legend of Zelda

AutoScroll: Slow | Medium | Fast
Ending
The Legend of Zelda
Composed by Koji Kondo
Tabbed by hslesperance
8/12/08

Tempo= 90

e---3--------0--------7-----5-----0--5--3--------0---------------------------|
B---------1-----4--------0-----1-----------1--3------------------------------|
G------0-----------0---------------------------------------------------------|
D----------------------------------------------------------------------------|
A----------------------------------------------------------------------------|
E----------------------------------------------------------------------------|
									     | 3x
e---5-----1--5--4--------1--0--------0---------------------------------------|
B------1-----------1--3-----------1-----3-----0--3---------------------------|
G------------------------------0-----------2---------------------------------|
D----------------------------------------------------------------------------|
A----------------------------------------------------------------------------|
E----------------------------------------------------------------------------|

e---3--------------7----5--------3--------5------7--10----8----3------0------
B---5------5--4---------5--------5--------6------6--6-----6----1------1--3---
G----------5--4----7-----------------------------------------------------4---
D----------------------------------------------------------------------------
A----------------------------------------------------------------------------
E----------------------------------------------------------------------------

e---3----------------3-7-5---------3--------5-----7---10--8----5--3----------
B---5----5---4-----3-----5-----5---5------------------6---5-------1----------
G--------5---4-----------------5------------5-----7------------5-------------
D----------------------------------------------------------------------------
A----------------------------------------------------------------------------
E----------------------------------------------------------------------------

e---0------------3-----------------3-7-5---------3--------5-----7------------
B-------3--------5-----5---4-----3-----5-----5---5---------------------------
G---0------------------5---4-----------------5------------5-----7------------
D-------3--------------------------------------------------------------------
A----------------------------------------------------------------------------
E----------------------------------------------------------------------------

e---10--8----10--12------------12--12--10----8--------7--5--3------0--5------
B---6---5----6---9-------------9---9---6-----6--------8--6--5------1--2------
G----------------------------------------------------------------------------
D----------------------------------------------------------------------------
A----------------------------------------------------------------------------
E----------------------------------------------------------------------------

e---0-------0--1--2--3----0--------------------------------------------------
B--------3-----------0---------1---------------------------------------------
G---0-------0--1--2-------0--------------0-----------------------------------
D--------3---------------------2--2-2--3---3-2-------------------------------
A----------------------------------------------------------------------------
E----------------------------------------------------------------------------

1 comment on Ending

Wonderful!

5

This is truly beautiful, and a bit challenging for the beginner.