Login or Register to remove this ad. | Advertise Here

Ending (Legend of Zelda) Guitar Tab

Submitted: Sep 30, 2007 by archard

4.285715
Average: 4.3 (14 votes)
Download | Listen
Game: Legend of Zelda
Composer(s): Koji Kondo
Style: Transcription
Series: Legend of Zelda

AutoScroll: Slow | Medium | Fast
Ending
The Legend of Zelda
Composed by Koji Kondo
Tabbed by Richard Schaefer
8/3/06

e--3-----0-----7---5---0-5-3-----0-5---1-5-4-----1-0-----0--------
B------1---4-----0---1-------1-3-----1-------1-3-------1---3---0-3
G----0-------0---------------------------------------0-------2----
D-----------------------------------------------------------------
A-----------------------------------------------------------------
E-----------------------------------------------------------------

e--3-----0-----7---5---0-5-3-----0-5---1-5-4-----1-0-----0--------
B------1---4-----0---1-------1-3-----1-------1-3-------1---3---0-3
G----0-------0---------------------------------------0-------2----
D-----------------------------------------------------------------
A-----------------------------------------------------------------
E-----------------------------------------------------------------

e--3---0----7--5---3-----5---7-10-8---3---0--
B--------4----------------------------------3
G--------------------------------------------
D--------------------------------------------
A--------------------------------------------
E--------------------------------------------

e--3---0------3-7-5---0-3-----5---7-10-8---5-3---0--
B--------4--3--------------------------------------3
G---------------------------------------------------
D---------------------------------------------------
A---------------------------------------------------
E---------------------------------------------------

e--3---0------3-7-5---0-3-----5---7-10-8---10-12---
B--------4--3--------------------------------------
G--------------------------------------------------
D--------------------------------------------------
A--------------------------------------------------
E--------------------------------------------------

e--12-12-10--8---7-5-3---0-5--0----0-1-2-3--0---
B--------------------------------3-------------1
G-----------------------------------------------
D-----------------------------------------------
A-----------------------------------------------
E-----------------------------------------------

10 comments on Ending

I've always loved this song,

I've always loved this song, but I only knew it as the "song the piano-Zora-dude plays in MM." THANKS.

could have been tabbed with

could have been tabbed with less hand movement accross the fretboard (more use of chord shapes, open strings etc.)

I agree with vaporfarts, it

3

I agree with vaporfarts, it could have been tabed better. Now, don't get me wrong, your awesome!

It's very accurate and one

5

It's very accurate and one of my favs, thanks mate!

you all talk about how it

5

you all talk about how it couldve been done easier. . but you dont get better by playing an easier version .. you hafta push yourself and try ahrdr .. so stop being a guitar noob

Actually, anonymous poster

4

Actually, anonymous poster above me, what they're talking about makes the song easier in a way that would help a great deal more than fret movement. I generally fingerpick..almost everything when I play, and it doesn't mix well having to move around the neck. That, and you should stop being an English noob. Just because no one is ever going to see you, doesn't mean you should make yourself look like an idiot for everyone here.

lmao i agree with ^^ great

lmao i agree with ^^

great tab :D

e||--3-------------------|---

e||--3-------------------|------------7---------|
b||-----------------5----|--4--------------0----|
G||-------0----5---------|-------0--------------|
D||----------------------|----------------------|
A||----------------------|----------------------|
E||----------------------|----------------------|



--5--------------5----|--3--------------0----|
------------5---------|------------3---------|
-------5--------------|-------5--------------|
----------------------|----------------------|
----------------------|----------------------|
----------------------|----------------------|


--5--------------5----|--4--------------1----|
------------6---------|------------3---------|
-------5--------------|-------5--------------|
----------------------|----------------------|
----------------------|----------------------|
----------------------|----------------------|


--0--------------0----|----------------------|
------------1---------|--3--------------3----|
-------0--------------|-------2----4---------|
----------------------|----------------------|
----------------------|----------------------|
----------------------|----------------------|    x2

My preferred fingering for the opening section.

S-s-so going through all that

S-s-so going through all that trouble and shes bein' a bitch...

lol

That's exactly why I'm here. Gotta learn that motherfucker...