Login or Register to remove this ad. | Advertise Here

Noah's Lute (Final Fantasy III) Guitar Tab

Submitted: Jun 01, 2007 by ronito (Last updated: Sep 08, 2009)

5
Average: 5 (8 votes)
Download | Listen
Game: Final Fantasy III
Composer(s): Nobuo Uematsu
Style: Arrangement, Fingerstyle
Series: Final Fantasy

AutoScroll: Slow | Medium | Fast
Noah's Lute
Final Fantasy 3
Composed by Nobuo Uematsu
Tabbed by Ron Cruz
6/1/07

     |--3--|  |--3--|  |--3--|  |--3--|
     E  E  E  E  E  E  E  E  E  E  E  E
E||--------------------------------------|
B||--1--------1--------3--------3--------|
G||--------0--------0--------1--------1--|
D||-----2--------2--------2--------2-----|
A||--3-----------------2-----------------|
E||--------------------------------------|

  |--3--|  |--3--|  |--3--|  |--3--|     |--3--|  |--3--|  |--3--|  |--3--|
  E  E  E  E  E  E  E  E  E  E  E  E     E  E  E  E  E  E  E  E  E  E  E  E
--0-----------------------------------|--3--------1--------0-----------------|
-----------1-----------------1--------|-----0--1--------1--------0--3--------|
--------2-----------2--------------2--|--------------2--------0-----------0--|
-----2-----------2-----2--------2-----|--------------------------------3-----|
--0-----------3-----------3-----------|--------------------------------------|
--------------------------------------|--1-----------------3-----------------|

  |--3--|  |--3--|  |--3--|  |--3--|     |--3--|  |--3--|  |--3--|  |--3--|
  E  E  E  E  E  E  E  E  E  E  E  E     E  E  E  E  E  E  E  E  E  E  E  E
--0-----------------------------------|--------------------------------------|
--------0--1--------0-----------------|--1--------1--------3--------3--------|
-----0-----------2--------0--2--------|--------0--------0--------1--------1--|
--------------3--------2--------0--3--|-----2--------2--------2--------2-----|
--3-----------------------------------|--3-----------------2-----------------|
--------------------------------------|--------------------------------------|

  |--3--|  |--3--|  |--3--|  |--3--|     |--3--|  |--3--|  |--3--|  |--3--|
  E  E  E  E  E  E  E  E  E  E  E  E     E  E  E  E  E  E  E  E  E  E  E  E
--0-----------------------------------|--3--------1--------0-----------------|
-----------1-----------------1--------|-----0--1--------1--------0--3--------|
--------2-----------2--------------2--|--------------2--------0-----------0--|
-----2-----------2-----2--------2-----|--------------------------------3-----|
--0-----------3-----------3-----------|--------------------------------------|
--------------------------------------|--1-----------------3-----------------|

  |--3--|  |--3--|  |--3--|  |--3--|
  E  E  E  E  E  E  E  E  E  E  E  E     W
--------------------------------------|-------------------||
--1--------1--------1--------0--------|--1----------------||
--------0--------0--------------------|--0----------------||
-----3--------2--------0--3-----0--3--|--2----------------||
--3-----------------------------------|--3----------------||
--------------------------------------|-------------------||

Duration Legend
---------------
W - whole
H - half
Q - quarter
E - 8th
S - 16th
T - 32nd
X - 64th
. - note dotted
|-n-|  - n-tuplets

2 comments on Noah's Lute

(No subject)

5

<3

there's a character named noah?

5

COOL! IM NOAH!