Login or Register to remove this ad. | Advertise Here

Battle Theme (Final Fantasy) Bass Tab

Submitted: Feb 05, 2008 by Zelos (Last updated: May 07, 2008)

5
Average: 5 (1 vote)
Download | Listen
Game: Final Fantasy
Composer(s): Nobuo Uematsu
Style: Arrangement
Series: Final Fantasy

AutoScroll: Slow | Medium | Fast
Battle Theme                                 
~Final Fantasy~
Composed by: Nobuo Uematsu
Arranged by: Zelos

BPM = 165

     W                   E  E  E  E  E  E  E  E     E  E  E  E  E  E  E  E   
G||-------------------|--------------------------|--------------------------|
D||-------------------|--------------------------|--------------------------|
A||-------------------|--------------------------|--------------------------|
E||-------------------|--3--3--3--3--3--3--1--1--|--3--3--3--3--3--3--1--1--|


    E  S S E  S S E  S S E  S S    E  S S E  S S E  S S E  S S  
|------0------2------3------2---|-----0------2------3------2---|
|*------------------------------|------------------------------|
|*---------0------1------3------|---------0------1------0------|
|---3---------------------------|--3---------------------------|


  E  S S E  S S E  S S E  S S    E  S S E  S S E  S S E  S S  
-----0------2------3------2---|-----0------2------3------2---|
------------------------------|------------------------------|
---------0------1------3------|---------0------1------0------|
--3---------------------------|--3---------------------------|


  E  S S E  S S E  S S E  S S    E  S S E  S S E  S S E  S S  
-----0------2------3------2---|-----0------2------3------2---|
------------------------------|------------------------------|
---------0------1------3------|---------0------1------0------|
--3---------------------------|--3---------------------------|


  E  S S E  S S E  S S E  S S    E  S S E  S S E  S S E  S S  
-----0------2------3------2---|-----0------2------3------2---|
------------------------------|------------------------------|
---------0------1------3------|---------0------1------0------|
--3---------------------------|--3---------------------------|


  S S S S Q.     Q.        Q    S S S S S S S S S S S S  
----------8-------------|---------------2---2---7---7---|
--1---1-----------------|--0----4---4-------------------|
-----------------6------|-------------------------------|
------------------------|-------------------------------|


  S S S S Q.     Q.        Q    H.              S S E  E  E  S S E  E  E   
----------8-------------|--------------------|---------0---------0--------|
------------------------|--------------------|----------------------------|
--6---6----------6------|--5-----------------|----------------------------|
------------------------|--------------------|--3---3-----3--3------3--3--|


  S S E  E  E  S S E  E  E     S S E  E  E  S S E  E  E   
--0---------0---------0-----|----------------------------|
----------------------------|---------0---------0--------|
----------------------------|----------------------------|
------3--3-----3---3-----3--|----------------------------|


  S S E  E  E  S S E  E  E     S S E  E  E  S S E  E  E   
----------------------------|---------0---------0--------|
--0---------0---------0-----|----------------------------|
----------------------------|----------------------------|
----------------------------|--3---3-----3--3------3--3--|


  S S E  E  E  S S E  E  E     S S E  E  E  S S E  E  E   
--0---------0---------0-----|----------------------------|
----------------------------|---------0---------0--------|
----------------------------|----------------------------|
------3--3-----3---3-----3--|----------------------------|


  S S E  E  E  S S E  E  E     H.           Q       H.           Q     
----------------------------|--------------------|--------------------|
--0---------0---------0-----|---------------3----|--------------------|
----------------------------|--------------------|--1------------3----|
----------------------------|--3-----------------|--------------------|


  S S S S S S S E.  Q    S S    S H.           E.   
-----------------------------|---------------------|
--0---0---0---0--------------|--0------------------|
--------------------3----3---|---------------------|
-----------------------------|---------------------|


  S S S S S S S E.  Q    E     S E.  Q    Q    Q       
----------------------------|------------------------||
--1---1---1---1-----1----1--|--0-----0----2----4----*||
----------------------------|-----------------------*||
----------------------------|------------------------||

Repeat until you're weary of it. ;)


Duration Legend
---------------
W - whole
H - half
Q - quarter
E - 8th
S - 16th
. - note dotted