Login or Register to remove this ad. | Advertise Here

Tantegel Castle (Dragon Quest I) Guitar Tab

Submitted: Sep 30, 2007 by ronito (Last updated: Nov 02, 2009)

5
Average: 5 (12 votes)
Download | Listen
Game: Dragon Quest I
Composer(s): Koichi Sugiyama
Style: Arrangement, Fingerstyle
Series: Dragon Quest

AutoScroll: Slow | Medium | Fast
MusicXML Part
     E  E  E  E  E  E  E  E     E  E  E  E  E  E  E  E
E||-----0-----0-----0-----0--|--------------------------|
B||--------3-----1-----0-----|--------------------------|
G||--------------------------|--2-----------2--0--------|
D||--------------------------|-----------2--------3--2--|
A||--0-----------------------|-----0--3-----------------|
E||--------------------------|--------------------------|

  E  E  E  E  E  E  E  E     E  E  E  E  E  E  E  E
-----1--0--1-----1-----1--|--------------0-----------|
--------------3-----1-----|--0--------0--------------|
--------------------------|--------1--------------1--|
--0-----------------------|-----2-----------2--4-----|
--------------------------|--------------------------|
--------------------------|--------------------------|

  E  E  E  E  E  E  E  E     E  E  E  E  E  E  E  E
-----3--1--3--0--3-----3--|--1-----3-----5-----3--1--|
--------------------2-----|--------------------------|
--2-----------------------|-----2-----2-----2--------|
--------------------------|--------------------------|
--------------------------|--------------------------|
--------------------------|--------------------------|

  E  E  E  E  E  E  E  E     E  E  E  E  E  E  E  E
--0--------0--------------|--0-----------0-----------|
--------1-----3-----4-----|-----------0-----3--1--0--|
-----0-----------0-----0--|--------1-----------------|
--------------------------|-----2--------------------|
--------------------------|--------------------------|
--------------------------|--------------------------|

  E  S S E  S S E  S S E  E     E  S S E  S S E  S S E  E
-----5-4-5--0---0------------|-----5-4-5--0---0------------|
--------------4----1-0-1-----|--------------4----1-0-1-----|
--------------------------2--|--------------------------2--|
-----------------------------|-----------------------------|
--0--------------------------|-----------------------------|
-----------------------------|--3--------------------------|

  E  E  E  E  E  E  E  E     E  E  E  E  E  E  E  E
--------------1-----------|--0-----------0--------0--|
--0-----1-----------1-----|-----------0--------2-----|
-----0-----0-----2-----2--|--------1--------0--------|
--------------------------|-----2--------------------|
--------------------------|--------------------------|
--------------------------|--------------------------|

  E  S S E  S S E  S S E  E     E  S S E  S S E  S S E  E
-----5-4-5--1-0-1------------|-----5-4-5--1-0-1------------|
-------------------3-2-3-----|-------------------3-2-3-----|
--------------------------2--|--------------------------2--|
--0--------------------------|-----------------------------|
-----------------------------|--3--------------------------|
-----------------------------|-----------------------------|

  E  E  E  E  E  E  E  E     E  E  E  E  E  E  E  E
--------------1--------1--|--0-----------------------|
--0-----1-----------1-----|--------------------------|
-----0-----0-----2--------|-----2--1-----------------|
--------------------------|-----------3--2--0--------|
--------------------------|--------------------3--2--|
--------------------------|--------------------------|

  E  E  E  E  E  E  E  E     E  E  E  E  E  E  E  E
-----0-----0-----0-----0--|--------------------0-----|
--------3-----1-----0-----|-----------0--2--3-----2--|
--------------------------|--2--1--2-----------------|
--------------------------|--------------------------|
--0-----------------------|--------------------------|
--------------------------|--------------------------|

  E  E  E  E  E  E  E  E     E  E  E  E  E  E  E  E
-----1-----1-----1--5--1--|--4--2--1--2--4--5--7--4--|
--3-----2-----3-----------|--------------------------|
--------------------------|--------------------------|
--------------------------|--------------------------|
--------------------------|--------------------------|
--------------------------|--------------------------|

  E  E  E  E  E  E  E  E     E  E  E  E  E  E  E  E
--6--2-----2--------2-----|--4--1-----1--------1-----|
--------2--------2-----2--|--------3--------3-----3--|
--------------3-----------|--------------1-----------|
--------------------------|--------------------------|
--------------------------|--------------------------|
--------------------------|--------------------------|

  E  E  E  E  E  E  E  E     E  E  E  E  E  E  E  E
--2-----------------------|--0-----------------------|
-----4-----4--------4-----|--------------------------|
--------3--------3-----3--|-----3-----3--------3-----|
--------------4-----------|--------4-----2--4-----4--|
--------------------------|--------------------------|
--------------------------|--------------------------|

  E  E  E  E  E  E  E  E     E  E  E  E  E  E  E  E
--------------------------|--------------------------|
--0-----------0-----------|--------------------------|
--------3-----------------|-----------------1--2-----|
--------------------4-----|--1-----1--2--4--------4--|
--------------------------|-----4--------------------|
-----2-----2-----2-----2--|--------------------------|

  E  E  E  E  E  E  E  E     E  E  E  E  E  E  E  E
--------------------------|--------------------------|
--------------------------|--------------------0-----|
-----1-----1-----1--------|--------------1--2-----1--|
--------4-----2-----1--4--|--2--1--2--4--------------|
--------------------------|--------------------------|
--0-----------------------|--------------------------|

  E  E  E  E  E  E  E  E     E  E  E  E  E  E  E  E
--------------------------|--------------------------|
--2-----------2-----------|--4-----------4-----------|
-----2-----2-----2-----2--|-----2-----2-----2-----2--|
--------2-----------2-----|--------4-----------4-----|
--------------------------|--------------------------|
--------------------------|--------------------------|

  E  E  E  E  E  E  E  E     E   E   E  E  E  E  E  E
--0-----------0-----------|-----12--10--8--7--5--4--0--|
-----0-----0-----0-----0--|----------------------------|
--------1-----------1-----|----------------------------|
--------------------------|----------------------------|
--------------------------|----------------------------|
--------------------------|--0-------------------------|

  E  E  E  E  E  E  E  E     E  E  E  E  E  E  E  E
--------------------------|--------------------------|
--2-----------2-----------|--3-----------3-----------|
-----3--0--3-----3--0--3--|-----2-----2-----2-----2--|
--------------------------|--------3-----------3-----|
--------------------------|--------------------------|
--------------------------|--------------------------|

  E  E  E  E  E  E  E  E     E  E  E  E  E  E  E  E
--------------------------|--0-----------0-----------|
--4-----------4-----------|-----0-----0-----0-----0--|
-----2-----2-----2-----2--|--------1-----------1-----|
--------4-----------4-----|--------------------------|
--------------------------|--------------------------|
--------------------------|--------------------------|

  E  E  E  E  E  E  E  E     E  E  E  E  E  E  E  E
--1-----------1-----------|--2-----------2-----------|
-----2-----2-----2-----2--|-----2-----2-----2-----2--|
--------1-----------1-----|--------------------------|
--------------------------|--------4-----------4-----|
--------------------------|--------------------------|
--------------------------|--------------------------|

  E  E  E  E  E  E  E  E     E  E  E  E  E  E  E  E
--3-----------3-----------|--4-----------------------|
-----2-----2-----2-----2--|--------------------------|
--------3-----------3-----|-----1--------------------|
--------------------------|--------4--2--1-----------|
--------------------------|-----------------4--3-----|
--------------------------|-----------------------4--|

  E  E  E  E  E  E  E  E     E  E  E  E  E  E  E  E
-----4--2--4--0--4-----4--|-----6--4--6--2--6--0--6--|
--------------------4-----|--2-----------------------|
--------------------------|--------------------------|
--------------------------|--------------------------|
--4-----------------------|--------------------------|
--------------------------|--------------------------|

  E  E  E  E  E  E  E  E     E  E  E  E  E  E  E  E
-----7--5--7--4--7--2--7--|--0-----0--2--4--5--7--4--|
--4-----------------------|-----4--------------------|
--------------------------|--------------------------|
--------------------------|--------------------------|
--------------------------|--------------------------|
--------------------------|--------------------------|

  E  E  E  E  E  E  E  E     E  E  E  E  E  E  E  E
--5--8--7--8--5--8--3--8--|--2--0-----0--2--4--5--2--|
--------------------------|--------4-----------------|
--------------------------|--------------------------|
--------------------------|--------------------------|
--------------------------|--------------------------|
--------------------------|--------------------------|

  E  E  E  E  E  E  E  E     E  E  E  E  E  E  E  E
--4-----------4-----------|--5-----------5-----------|
-----5-----5-----5-----5--|-----5-----5-----5-----5--|
--------4-----------4-----|--------------------------|
--------------------------|--------7-----------7-----|
--------------------------|--------------------------|
--------------------------|--------------------------|

  E  E  E  E  E  E  E  E     E  E  E  E  E  E  E  E
--6-----------6-----------|--7-----------7-----------|
-----5-----5-----5-----5--|-----4-----4-----4-----4--|
--------6-----------6-----|--------4-----------4-----|
--------------------------|--------------------------|
--------------------------|--------------------------|
--------------------------|--------------------------|

  E  E  E  E  E  E  E  E      E   E   E   E   E   E   E   E
--9-----------9-----------|--10--------------10--------------|
-----8-----8-----8-----8--|------10------10------10------10--|
--------------------------|----------10--------------10------|
--------8-----------8-----|----------------------------------|
--------------------------|----------------------------------|
--------------------------|----------------------------------|

   E   E   E   E   E   E   E   E      E  E  E  E  E  E  E  E
--11--------------11--------------|--12--0--------------------|
------10------10------10------10--|---------3--1--0-----------|
----------11--------------11------|------------------2--1-----|
----------------------------------|------------------------2--|
----------------------------------|---------------------------|
----------------------------------|---------------------------|

  E  E  E  E  E  E  E  E     E  E  E  E  E  E  E  E
-----0-----0-----0-----0--|--------------------------|
--------3-----1-----0-----|--------------------------|
--------------------------|--2-----------2--0--------|
--------------------------|-----------2--------3--2--|
--0-----------------------|-----0--3-----------------|
--------------------------|--------------------------|

  E  E  E  E  E  E  E  E     E  E  E  E  E  E  E  E
-----1--0--1-----1-----1--|--------------0-----------|
--------------3-----1-----|--0--------0--------------|
--------------------------|--------1--------------1--|
--0-----------------------|-----2-----------2--4-----|
--------------------------|--------------------------|
--------------------------|--------------------------|

  E  E  E  E  E  E  E  E     E  E  E  E  E  E  E  E
-----3--1--3--0--3-----3--|--1-----3-----5-----3--1--|
--------------------2-----|--------------------------|
--2-----------------------|-----2-----2-----2--------|
--------------------------|--------------------------|
--------------------------|--------------------------|
--------------------------|--------------------------|

  E  E  E  E  E  E  E  E     E  E  E  E  E  E  E  E
--0--------0--------------|--0-----------0-----------|
--------1-----3-----4-----|-----------0-----3--1--0--|
-----0-----------0-----0--|--------1-----------------|
--------------------------|-----2--------------------|
--------------------------|--------------------------|
--------------------------|--------------------------|

  E  S S E  S S E  S S E  E     E  S S E  S S E  S S E  E
-----5-4-5--0---0------------|-----5-4-5--0---0------------|
--------------4----1-0-1-----|--------------4----1-0-1-----|
--------------------------2--|--------------------------2--|
-----------------------------|-----------------------------|
--0--------------------------|-----------------------------|
-----------------------------|--3--------------------------|

  E  E  E  E  E  E  E  E     E  E  E  E  E  E  E  E
--------------1-----------|--0-----------0--------0--|
--0-----1-----------1-----|-----------0--------2-----|
-----0-----0-----2-----2--|--------1--------0--------|
--------------------------|-----2--------------------|
--------------------------|--------------------------|
--------------------------|--------------------------|

  E  S S E  S S E  S S E  E     E  S S E  S S E  S S E  E
-----5-4-5--1-0-1------------|-----5-4-5--1-0-1------------|
-------------------3-2-3-----|-------------------3-2-3-----|
--------------------------2--|--------------------------2--|
--0--------------------------|-----------------------------|
-----------------------------|--3--------------------------|
-----------------------------|-----------------------------|

  E  E  E  E  E  E  E  E     E  E  E  E  E  E  E  E
--------------1--------1--|--0-----------------------|
--0-----1-----------1-----|--------------------------|
-----0-----0-----2--------|-----2--1-----------------|
--------------------------|-----------3--2--0--------|
--------------------------|--------------------3--2--|
--------------------------|--------------------------|

  E  E  E  E  E  E  E  E     W
-----0-----0-----0-----0--|-------------------||
--------3-----1-----0-----|--2----------------||
--------------------------|--2----------------||
--------------------------|-------------------||
--0-----------------------|--0----------------||
--------------------------|-------------------||

Duration Legend
---------------
W - whole
H - half
Q - quarter
E - 8th
S - 16th
T - 32nd
X - 64th
. - note dotted
|-n-|  - n-tuplets

5 comments on Tantegel Castle

Nice tab. Not too difficult

Nice tab. Not too difficult

2 words: Awesome Tab. Ownage

5

2 words: Awesome Tab.
Ownage song, accurate tabbing, and relatively easy to play. Thanks!

Absolutely bad ass! I love

5

Absolutely bad ass! I love playing this song with a little distortion! Keep up the good work!!!

Incredible, I used to just

5

Incredible, I used to just stand still in the game so I could listen to this song as a kid

Thanks

I love this.

5

That's all I have to say.