Login or Register to remove this ad. | Advertise Here

Stage 2 - "Base" (Contra) Guitar Tab

Submitted: Oct 31, 2007 by Ice Climbers

4
Average: 4 (3 votes)
Download | Listen
Game: Contra
Composer(s): Club Kukeiha
Style: 2 or more instruments, Transcription

AutoScroll: Slow | Medium | Fast
                         Game: Contra (Probotector) 
                     Stage: Second Stage - Lead Guitar 
                  Tabbed by: Erik Lundmark, Nicklas Engberg

                                    NOTE!!! 
         Sometimes you must ignore the timing! Just listen to the song! 

CONTACT:

www.myspace.com/iceclimbersrocks

iceclimbersrocks@hotmail.com

e-------9----12-11-9|-----------9----11-12-13-|------11----14-13-11|----------
B-11-11---11--------|-----11-11---11----------|13-13----13---------|----------
G-------------------|-x3----------------------|--------------------|x3--------
D-------------------|-------------------------|--------------------|----------
A-------------------|-------------------------|--------------------|----------
E-------------------|-------------------------|--------------------|----------
                                                                              
e-------11----13-14-15------------11-11-13----------14-14-16------------18-18-
B-13-13----13-----------------------------------------------------------------
G------------------------11-11-10-----------8-8-10------------11-11-10--------
D-----------------------------------------------------------------------------
A-----------------------------------------------------------------------------
E-----------------------------------------------------------------------------
                                                                              
e-20----------23-23-25-25-----------------------------------------------------
B-----------------------------------------------------------------------------
G-----8-8-10------------------------------------------------------------------
D-----------------------------------------------------------------------------
A-----------------------------------------------------------------------------
E-----------------------------------------------------------------------------
                                                                              
e-------9-----12-11-9|-----------9----11-12-13|-------11----14-13-11|---------
B-11-11---11---------|-----11-11---11---------|-13-13----13---------|---------
G--------------------|-x3---------------------|---------------------|x3-------
D--------------------|------------------------|---------------------|---------
A--------------------|------------------------|---------------------|---------
E--------------------|------------------------|---------------------|---------
                                                                              
e-------11----13-14-15--------------------------------------------------------
B-13-13----13-----------------------------------------------------------------
G-----------------------------------------------------------------------------
D------------------------11----12----11----12----11----12----11----12---------
A---------------------------13----13----13----13----13----13----13----13------
E-----------------------------------------------------------------------------
                                                                              
e-----------------------------------------------------------------------------
B-----------------------------------------------------------------------------
G-----------------------------------------------------------------------------
D-11-11-------12-12-------11-11-------12-12-------11-11-------12-12-----------
A-------13-13-------13-13-------13-13-------13-13-------13-13-------13-13-----
E-----------------------------------------------------------------------------
                                                                              
e-----------------------------------------------------------------------------
B-----------------------------------------------------------------------------
G-----------------------------------------------------------------------------
D-11-11-------12-12-----------------------------------------------------------
A-------13-13-------13-13-----------------------------------------------------
E-----------------------------------------------------------------------------

                         Game: Contra (Probotector) 
                    Stage: Second Stage - Harmony Guitar 
                  Tabbed by: Erik Lundmark, Nicklas Engberg

                                    NOTE!!! 
         Sometimes you must ignore the timing! Just listen to the song! 


CONTACT:

www.myspace.com/iceclimbersrocks

iceclimbersrocks@hotmail.com

e-------------8-----|------------------8-9-|-------------9-8---|---------------
B-------9-------11-9|----------9----11-----|------11---------11|---------11----
G-10-10---10--------|x3--10-10---10--------|11-11----11--------|x3-11-11----11-
D-------------------|----------------------|-------------------|---------------
A-------------------|----------------------|-------------------|---------------
E-------------------|----------------------|-------------------|---------------
                                                                              

e------------------------------------------------------------------------------
B-13-14-15-----------11-11-13---------14-14-16------------18-18-19-------------
G------------------------------------------------------------------------------
D-----------11-11-10-----------8-8-10------------11-11-10-----------8-8-10-----
A------------------------------------------------------------------------------
E------------------------------------------------------------------------------
                                                                              

e-18-18--18-18-|-----------8-----|---------------8------|-------------9-8---|--
B--------------|------9------11-9|----------9------11-9-|-------11--------11|--
G--------------|10-10---10-------|x3--10-10---10--------|-11-11----11-------|x3
D--------------|-----------------|----------------------|-------------------|--
A--------------|-----------------|----------------------|-------------------|--
E--------------|-----------------|----------------------|-------------------|--
                                                                              

e-------------13-14-15---------------------------------------------------------
B-------11---------------------------------------------------------------------
G-11-11----11------------------------------------------------------------------
D------------------------------------------------------------------------------
A------------------------11----12----11----12----11----12----11----12----------
E---------------------------13----13----13----13----13----13----13----13-------
                                                                              

e------------------------------------------------------------------------------
B------------------------------------------------------------------------------
G------------------------------------------------------------------------------
D------------------------------------------------------------------------------
A-11-11-------12-12-------11-11-------12-12-------11-11-------12-12------------
E-------13-13-------13-13-------13-13-------13-13-------13-13-------13-13------
                                                                              

e------------------------------------------------------------------------------
B------------------------------------------------------------------------------
G------------------------------------------------------------------------------
D------------------------------------------------------------------------------
A-11-11-------12-12------------------------------------------------------------
E-------13-13-------13-13------------------------------------------------------