Login or Register to remove this ad. | Advertise Here

Surf City (Battletoads) Guitar Tab

Submitted: Jul 16, 2007 by archard (Last updated: Jun 20, 2008)

2
Average: 2 (3 votes)
Download | Listen
Game: Battletoads
Composer(s): Dave Wise
Style: Transcription

AutoScroll: Slow | Medium | Fast
Surf City
Battletoads
Composed by Dave Wise
Tabbed by Richard Schaefer (richard@gametabs.net)
7/16/07

e-------------------------------------------------------
B-------------------------------------------------------
G---------------10-12--12-10----10----------------------
D--10--10-10-13--------------13------10-10--13---13-13--
A-------------------------------------------------------
E------------------------------------------------------- x2

e-------------------------------------------------------
B---------------11-13--13-11----11----------------------
G--10--10-10-13--------------13------10-10--13---13-13--
D-------------------------------------------------------
A-------------------------------------------------------
E-------------------------------------------------------

e-------------------------------------------------------
B-------------------------------------------------------
G---------------10-12--12-10----10----------------------
D--10--10-10-13--------------13------10-10--13---13-13--
A-------------------------------------------------------
E-------------------------------------------------------

e-----------------------------------------------------
B-----------------------------------------------------
G---------10--8--8-8--8-10---------------12-----------
D--8--8-8------------------8----10-12-13----13-12-13--
A----------------------------10-----------------------
E-----------------------------------------------------

e---------------------------------------------------------------------------
B---------------------------------------------------------------------------
G--------------12----------------------12----------------------12-----------
D-----10-12-13----13-12-13----10-12-13----13-12-13----10-12-13----13-12-13--
A--11----------------------13----------------------11-----------------------
E---------------------------------------------------------------------------

And repeat this pattern a few times then go into

e------------------------------------------------------------
B------------------------------------13-11-------------------
G---------------10-12--12-10----10----------12--12-10----10--
D--10--10-10-13--------------13-----------------------13-----
A------------------------------------------------------------
E------------------------------------------------------------ x4

e---------------------------------
B---------------------------------
G---------------------------------
D------------8-10--10-8-----------
A---------10------------8h10-6h8--
E--8--8-8------------------------- x2

e----------------------------------------
B---------------11-13--13-11-------------
G------------12--------------10h12-8h10--
D--10--10-10-----------------------------
A----------------------------------------
E---------------------------------------- x2

Repeat

2 comments on Surf City

omfg yea battletoads!

omfg yea battletoads!

Wow I totally hear that papa

Wow I totally hear that papa roach song in this song lol