Login or Register to remove this ad. | Advertise Here

Main Theme (Balloon Fight) Guitar Tab

Submitted: Sep 30, 2007 by Jon Wagner (Last updated: Sep 30, 2007)

3
Average: 3 (2 votes)
Download | Listen
Game: Balloon Fight
Composer(s): Hirokazu Tanaka
Style: 2 or more instruments, Transcription

AutoScroll: Slow | Medium | Fast
                                   balloon fight

  Q=148  all of the long pauses is where the bass was suposed to take over...
Note for person who requested tab: lol the reason this took so long is
because u said ur guitar doesnt go past the 19th fret... so i made it so
none of the notes dont go past that also that the reason i didnt do the bass...
every time i brought it down is either sounded to low or was past the 19 fret..
srry bout that.... good luck ^^
----------------------------
Jon Wagner (splincell43)
 4/4
  Gtr I
  W          H    S  E S E S  S    +S   E  S  +S  S E S  E S  E  E
|----------|--------------------|----------------------------------|
|----------|--------------------|----------------------------------|
|----------|--------12-------14-|-(14)-17-12-(12)-------10---10-10-|
|----------|--------------------|----------------------------------|
|----------|--------------------|----------------------------------|
|----------|--------------------|----------------------------------|
|
| Gtr II
| W          H    S  E S E S  S    +S   E  S  +S  S E S  E S  E  E
|----------|--------------------|----------------------------------|
|----------|--------------------|----------------------------------|
|----------|---------9--------9-|--(9)-12--9--(9)--------7----7--7-|
|----------|--------------------|----------------------------------|
|----------|--------------------|----------------------------------|
|----------|--------------------|----------------------------------|

  S  E.    E  E  +S  S S S S S S S   S S S S S S S S S S S S S S S S
|----------------------------------|---------------------------------|
|----------------------------------|---------------------------------|
|---10----12-10-(10)-5-5-5-5-5-5-5-|-5-5-5-5-5-5-5-5-5-3-3-3-3-3-3-3-|
|----------------------------------|---------------------------------|
|----------------------------------|---------------------------------|
|----------------------------------|---------------------------------|
|
| S  E  S  E  E   H                  W
|----------------------------------|---------------------------------|
|----------------------------------|---------------------------------|
|----7-----9--7--------------------|---------------------------------|
|----------------------------------|---------------------------------|
|----------------------------------|---------------------------------|
|----------------------------------|---------------------------------|

  S S S S S S S S S S E E S S   S  S S S Q  E S S S S S S
|-----------------------------|---------------------------|
|-----------------------------|---------------------2-----|
|-3-3-3-3-3-3-3-3-3-7-------9-|---12---5--------7-------7-|
|-----------------------------|---------------------------|
|-----------------------------|---------------------------|
|-----------------------------|---------------------------|

  E S S S  S S S S S E E S S   S  S S S Q  E S S S S S S
|----------------------------|----------------------------|
|----------------------------|---------------------2------|
|-----5---12---5---7-------9-|---12---5--------7-------7--|
|----------------------------|----------------------------|
|----------------------------|----------------------------|
|----------------------------|----------------------------|

  E S S S  S S S S S E E S S   S  S S S Q  E S S S S S S
|----------------------------|----------------------------|
|----------------------------|---------------------2------|
|-----5---12---5---7-------9-|---12---5--------7-------7--|
|----------------------------|----------------------------|
|----------------------------|----------------------------|
|----------------------------|----------------------------|

  E S S S  S S S S S E E S S   S  S S S Q  S S S S S S S S
|----------------------------|-----------------------------|
|----------------------------|---------------5-4---3-2-0---|
|-----5---12---5---7-------9-|---12---5--------------------|
|----------------------------|-----------------------------|
|----------------------------|-----------------------------|
|----------------------------|-----------------------------|

   S  S S S S S S S S S E Q    W          W          W
|----------------------------|----------|----------|------|
|----------------------------|----------|----------|------|
|-11-10-9---8-7-6---5--------|----------|----------|------|
|----------------------------|----------|----------|------|
|----------------------------|----------|----------|------|
|----------------------------|----------|----------|------|

  W          W          W          W
|----------|----------|----------|------|
|----------|----------|----------|------|
|----------|----------|----------|------|
|----------|----------|----------|------|
|----------|----------|----------|------|
|----------|----------|----------|------|

  H    S S E E S S   S  S S S Q  E S S S S S S   E S S S  S S S S S E E S S
|------------------|---------------------------|-----------------------------|
|------------------|---------------------2-----|-----------------------------|
|--------7-------9-|---12---5--------7-------7-|-----5---12---5---7-------9--|
|------------------|---------------------------|-----------------------------|
|------------------|---------------------------|-----------------------------|
|------------------|---------------------------|-----------------------------|

  S  S S S Q  E S S S S S S   E S S S  S S S S S E E S S
|---------------------------|-----------------------------|
|---------------------2-----|-----------------------------|
|---12---5--------7-------7-|-----5---12---5---7-------9--|
|---------------------------|-----------------------------|
|---------------------------|-----------------------------|
|---------------------------|-----------------------------|

  S  S S S Q  E S S S S S S   E S S S  S S S S S E E S S
|---------------------------|-----------------------------|
|---------------------2-----|-----------------------------|
|---12---5--------7-------7-|-----5---12---5---7-------9--|
|---------------------------|-----------------------------|
|---------------------------|-----------------------------|
|---------------------------|-----------------------------|

  S  S S S Q  E S S S S S S   E S S S  S S S H      W
|---------------------------|---------------------|------|
|---------------------2-----|---------------------|------|
|---12---5--------7-------7-|-----5---12---5------|------|
|---------------------------|---------------------|------|
|---------------------------|---------------------|------|
|---------------------------|---------------------|------|

  W          W          H    S  E S E S  S    +S   E  S  +S  S E S  E S  E  E
|----------|----------|--------------------|-----------------------------------|
|----------|----------|--------------------|-----------------------------------|
|----------|----------|--------12-------14-|-(14)-17-12-(12)-------10---10-10--|
|----------|----------|--------------------|-----------------------------------|
|----------|----------|--------------------|-----------------------------------|
|----------|----------|--------------------|-----------------------------------|
|
| Gtr II
| W          W          H    S  E S E S  S    +S   E  S  +S  S E S  E S  E  E
|----------|----------|--------------------|-----------------------------------|
|----------|----------|--------------------|-----------------------------------|
|----------|----------|---------9--------9-|--(9)-12--9--(9)--------7----7--7--|
|----------|----------|--------------------|-----------------------------------|
|----------|----------|--------------------|-----------------------------------|
|----------|----------|--------------------|-----------------------------------|

  S  E.    E  E  +S  S S S S S S S   S S S S S S S S S S S S S S S S
|----------------------------------|---------------------------------|
|----------------------------------|---------------------------------|
|---10----12-10-(10)-5-5-5-5-5-5-5-|-5-5-5-5-5-5-5-5-5-3-3-3-3-3-3-3-|
|----------------------------------|---------------------------------|
|----------------------------------|---------------------------------|
|----------------------------------|---------------------------------|
|
| S  E  S  E  E   H                  W
|----------------------------------|---------------------------------|
|----------------------------------|---------------------------------|
|----7-----9--7--------------------|---------------------------------|
|----------------------------------|---------------------------------|
|----------------------------------|---------------------------------|
|----------------------------------|---------------------------------|

  S S S S S S S S S S E E S S   S  S S S Q  E S S S S S S
|-----------------------------|---------------------------|
|-----------------------------|---------------------2-----|
|-3-3-3-3-3-3-3-3-3-7-------9-|---12---5--------7-------7-|
|-----------------------------|---------------------------|
|-----------------------------|---------------------------|
|-----------------------------|---------------------------|

  E S S S  S S S S S E E S S   S  S S S Q  E S S S S S S
|----------------------------|----------------------------|
|----------------------------|---------------------2------|
|-----5---12---5---7-------9-|---12---5--------7-------7--|
|----------------------------|----------------------------|
|----------------------------|----------------------------|
|----------------------------|----------------------------|

  E S S S  S S S S S E E S S   S  S S S Q  E S S S S S S
|----------------------------|----------------------------|
|----------------------------|---------------------2------|
|-----5---12---5---7-------9-|---12---5--------7-------7--|
|----------------------------|----------------------------|
|----------------------------|----------------------------|
|----------------------------|----------------------------|

  E S S S  S S S S S E E S S   S  S S S Q  S S S S S S S S
|----------------------------|-----------------------------|
|----------------------------|---------------5-4---3-2-0---|
|-----5---12---5---7-------9-|---12---5--------------------|
|----------------------------|-----------------------------|
|----------------------------|-----------------------------|
|----------------------------|-----------------------------|

   S  S S S S S S S S S E Q    W          W          W
|----------------------------|----------|----------|------|
|----------------------------|----------|----------|------|
|-11-10-9---8-7-6---5--------|----------|----------|------|
|----------------------------|----------|----------|------|
|----------------------------|----------|----------|------|
|----------------------------|----------|----------|------|

  W          W          W          W
|----------|----------|----------|------|
|----------|----------|----------|------|
|----------|----------|----------|------|
|----------|----------|----------|------|
|----------|----------|----------|------|
|----------|----------|----------|------|

  H    S S E E S S   S  S S S Q  E S S S S S S   E S S S  S S S S S E E S S
|------------------|---------------------------|-----------------------------|
|------------------|---------------------2-----|-----------------------------|
|--------7-------9-|---12---5--------7-------7-|-----5---12---5---7-------9--|
|------------------|---------------------------|-----------------------------|
|------------------|---------------------------|-----------------------------|
|------------------|---------------------------|-----------------------------|

  S  S S S Q  E S S S S S S   E S S S  S S S S S E E S S
|---------------------------|-----------------------------|
|---------------------2-----|-----------------------------|
|---12---5--------7-------7-|-----5---12---5---7-------9--|
|---------------------------|-----------------------------|
|---------------------------|-----------------------------|
|---------------------------|-----------------------------|

  S  S S S Q  E S S S S S S   E S S S  S S S S S E E S S
|---------------------------|-----------------------------|
|---------------------2-----|-----------------------------|
|---12---5--------7-------7-|-----5---12---5---7-------9--|
|---------------------------|-----------------------------|
|---------------------------|-----------------------------|
|---------------------------|-----------------------------|

  S  S S S Q  E S S S S S S   E S S S  S S S H      W
|---------------------------|---------------------|------|
|---------------------2-----|---------------------|------|
|---12---5--------7-------7-|-----5---12---5------|------|
|---------------------------|---------------------|------|
|---------------------------|---------------------|------|
|---------------------------|---------------------|------|

  W          W          H    S  E S E S  S    +S   E  S  +S  S E S  E S  E  E
|----------|----------|--------------------|-----------------------------------|
|----------|----------|--------------------|-----------------------------------|
|----------|----------|--------12-------14-|-(14)-17-12-(12)-------10---10-10--|
|----------|----------|--------------------|-----------------------------------|
|----------|----------|--------------------|-----------------------------------|
|----------|----------|--------------------|-----------------------------------|
|
| Gtr II
| W          W          H    S  E S E S  S    +S   E  S  +S  S E S  E S  E  E
|----------|----------|--------------------|-----------------------------------|
|----------|----------|--------------------|-----------------------------------|
|----------|----------|---------9--------9-|--(9)-12--9--(9)--------7----7--7--|
|----------|----------|--------------------|-----------------------------------|
|----------|----------|--------------------|-----------------------------------|
|----------|----------|--------------------|-----------------------------------|

  S  E.    E  E  +S  S S S S S S S   S S S S S S S S S S S S S S S S
|----------------------------------|---------------------------------|
|----------------------------------|---------------------------------|
|---10----12-10-(10)-5-5-5-5-5-5-5-|-5-5-5-5-5-5-5-5-5-3-3-3-3-3-3-3-|
|----------------------------------|---------------------------------|
|----------------------------------|---------------------------------|
|----------------------------------|---------------------------------|
|
| S  E  S  E  E   H                  W
|----------------------------------|---------------------------------|
|----------------------------------|---------------------------------|
|----7-----9--7--------------------|---------------------------------|
|----------------------------------|---------------------------------|
|----------------------------------|---------------------------------|
|----------------------------------|---------------------------------|

  S S S S S S S S S S E E S S   S  S S S Q  E S S S S S S
|-----------------------------|---------------------------|
|-----------------------------|---------------------2-----|
|-3-3-3-3-3-3-3-3-3-7-------9-|---12---5--------7-------7-|
|-----------------------------|---------------------------|
|-----------------------------|---------------------------|
|-----------------------------|---------------------------|

  E S S S  S S S S S E E S S   S  S S S Q  E S S S S S S
|----------------------------|----------------------------|
|----------------------------|---------------------2------|
|-----5---12---5---7-------9-|---12---5--------7-------7--|
|----------------------------|----------------------------|
|----------------------------|----------------------------|
|----------------------------|----------------------------|

  E S S S  S S S S S E E S S   S  S S S Q  E S S S S S S
|----------------------------|----------------------------|
|----------------------------|---------------------2------|
|-----5---12---5---7-------9-|---12---5--------7-------7--|
|----------------------------|----------------------------|
|----------------------------|----------------------------|
|----------------------------|----------------------------|

  E S S S  S S S S S E E S S   S  S S S Q  S S S S S S S S
|----------------------------|-----------------------------|
|----------------------------|---------------5-4---3-2-0---|
|-----5---12---5---7-------9-|---12---5--------------------|
|----------------------------|-----------------------------|
|----------------------------|-----------------------------|
|----------------------------|-----------------------------|

   S  S S S S S S S S S E Q    W          W          W
|----------------------------|----------|----------|------|
|----------------------------|----------|----------|------|
|-11-10-9---8-7-6---5--------|----------|----------|------|
|----------------------------|----------|----------|------|
|----------------------------|----------|----------|------|
|----------------------------|----------|----------|------|

  W          W          W          W
|----------|----------|----------|------|
|----------|----------|----------|------|
|----------|----------|----------|------|
|----------|----------|----------|------|
|----------|----------|----------|------|
|----------|----------|----------|------|

  H    S S E E S S   S  S S S Q  E S S S S S S   E S S S  S S S S S E E S S
|------------------|---------------------------|-----------------------------|
|------------------|---------------------2-----|-----------------------------|
|--------7-------9-|---12---5--------7-------7-|-----5---12---5---7-------9--|
|------------------|---------------------------|-----------------------------|
|------------------|---------------------------|-----------------------------|
|------------------|---------------------------|-----------------------------|

  S  S S S Q  E S S S S S S   E S S S  S S S S S E E S S
|---------------------------|-----------------------------|
|---------------------2-----|-----------------------------|
|---12---5--------7-------7-|-----5---12---5---7-------9--|
|---------------------------|-----------------------------|
|---------------------------|-----------------------------|
|---------------------------|-----------------------------|

  S  S S S Q  E S S S S S S   E S S S  S S S S S E E S S
|---------------------------|-----------------------------|
|---------------------2-----|-----------------------------|
|---12---5--------7-------7-|-----5---12---5---7-------9--|
|---------------------------|-----------------------------|
|---------------------------|-----------------------------|
|---------------------------|-----------------------------|

  S  S S S Q  E S S S S S S   E S S S  S S S H      W
|---------------------------|---------------------|------|
|---------------------2-----|---------------------|------|
|---12---5--------7-------7-|-----5---12---5------|------|
|---------------------------|---------------------|------|
|---------------------------|---------------------|------|
|---------------------------|---------------------|------|

  W          W          H    S  E S E S  S    +S   E  S  +S  S E S  E S  E  E
|----------|----------|--------------------|-----------------------------------|
|----------|----------|--------------------|-----------------------------------|
|----------|----------|--------12-------14-|-(14)-17-12-(12)-------10---10-10--|
|----------|----------|--------------------|-----------------------------------|
|----------|----------|--------------------|-----------------------------------|
|----------|----------|--------------------|-----------------------------------|
|
| Gtr II
| W          W          H    S  E S E S  S    +S   E  S  +S  S E S  E S  E  E
|----------|----------|--------------------|-----------------------------------|
|----------|----------|--------------------|-----------------------------------|
|----------|----------|---------9--------9-|--(9)-12--9--(9)--------7----7--7--|
|----------|----------|--------------------|-----------------------------------|
|----------|----------|--------------------|-----------------------------------|
|----------|----------|--------------------|-----------------------------------|

  S  E.    E  E  +S  S S S S S S S   S S S S S S S S S S S S S S S S
|----------------------------------|---------------------------------|
|----------------------------------|---------------------------------|
|---10----12-10-(10)-5-5-5-5-5-5-5-|-5-5-5-5-5-5-5-5-5-3-3-3-3-3-3-3-|
|----------------------------------|---------------------------------|
|----------------------------------|---------------------------------|
|----------------------------------|---------------------------------|
|
| S  E  S  E  E   H                  W
|----------------------------------|---------------------------------|
|----------------------------------|---------------------------------|
|----7-----9--7--------------------|---------------------------------|
|----------------------------------|---------------------------------|
|----------------------------------|---------------------------------|
|----------------------------------|---------------------------------|

  S S S S S S S S S  S E Q
|---------------------------*|
|---------------------------*|
|-3-3-3-3-3-3-3-3-3-10------*|
|---------------------------*|
|---------------------------*|
|---------------------------*|

2 comments on Main Theme

thanks a lot for not going

thanks a lot for not going above it

no prob.. wasnt all that

no prob.. wasnt all that hard after i realized sumthing