Login or Register to remove this ad. | Advertise Here

Grief and Sorrow (Hokage's funeral) (Naruto) Guitar Tab

Submitted: Jan 15, 2010 by diralark (Last updated: Oct 21, 2010)

5
Average: 5 (2 votes)
Download | Listen
Game: Naruto
Composer(s): Toshiro Masuda
Style: Arrangement, Fingerstyle
Series: Naruto

AutoScroll: Slow | Medium | Fast
          Grief and Sorrow (Hokage's funeral) -  [ from Naruto ]

    Music by Toshiro Masuda >> Piano score by HogsKing >> Tab by diralark

Guitar :  Capo. 5 fret  -   Tempo = 68

     ^                          ^                                                 
     E  E  E  Q    E  E  S S    E  E  E  Q    E  E  E     E  E  E  Q.     E  S S  
E||--0-----0--2-------2--0---|--------3--5-------3-----|-------------------------|
B||--0--0------------------3-|--0--3----------------3--|-----------0-------------|
G||--0-------------0---------|--0-------------4--------|--------2---------0--2-0-|
D||--------------------------|--0----------------------|--2--2-------------------|
A||--------------------------|-------------------------|--3----------------------|
E||--0-----------------------|--3----------------------|--5----------------------|


            ^                          ^                  ^                 
  Q    Q    Q    Q       E  E  E  Q    E  E  S S    E  E  E  Q    E  E  E   
----------------------|--0-----0--2----3--2--0---|--------3--5----7--------|
----------------------|--0--0----------0-------3-|--0--3--0----------8-----|
-------0--------------|--0-----0-----------------|--0-------------------7--|
--2---------4---------|--------------------------|--0----------------------|
--3---------5----5----|--------------------------|-------------------------|
--3--------------5----|--0-----------------------|--3----------------------|


                 ^                      ^                 ^           ^      
  E  E  E  E  E  E  E  S  S    H        H           E  E  E  E  E  E  E  E   
-----------------0--3-------|-----------0--------|--0-----------------------|
-----------0--1-------------|-----------0--------|--------1-----------------|
--2-----2--------2-----2p-0-|--------------------|--0-----------0-----------|
-----2-----2----------------|--2-----------------|--------------------2-----|
--3-------------------------|--2-----------------|--3-----3-----3-----3-----|
----------------------------|--3--------0--------|-----3-----3-----3-----3--|


              ^                                                                  
  E  E  E  E  E  E  E  E     E  E  E  E.  S E  E  E     E  E  E  E  E  E  E  E   
--------------------------|--0-----------------------|--------------------------|
--3-----------3-----------|--0-----------------------|--------------------------|
--------2-----------------|-----------4-----0--------|-----0-----------0--------|
--0-----2-----0-----4-----|--------2--4---L-------2--|--0-----4--0--------4--2--|
-----0-----0-----0-----0--|-----2-----------2--2-----|-----2--------2-----2-----|
--2-----------------------|--0-----------------------|--0-----------------------|


        ^                                               ^        ^               
  E  E  E  E  E  E  E  E     E  E  E  E  E  E  E  E     E  E  E  E  E  E  E  E   
--0-----------------------|--------------------------|--------------------------|
--------1-----------------|--------------3-----------|--3--------2--------------|
--0-----0-----0-----------|--------2-----------------|--2--------2--------------|
--------------------2-----|--0-----------0-----------|-----------------0--2-----|
--3-----------3-----------|-----0-----0-----0-----0--|--------0-----4-----4--4--|
-----3-----3-----3-----3--|--2-----------2-----2-----|--0--0--------------------|


                    VII(4)                                                              
  ^                                    ^                            ^                   
  E  E  E  E  E  E  E      E     E  E  E  E  E  E  E  S  S    E  E  E  E  E  E  E  S S  
--0--------------0---------7--|----------------------------|---------------------------|
--0-----------------7---------|--------0-------------------|--------0----------------0-|
--------------------4---------|--------0-----4-----0--2p-0-|--------0-----------0--2---|
--------------1---------------|--2-----2-----4-------------|--0-----2-----4------------|
--2-----2--4--2---------------|--2--2-----2-----2-----2----|--2--2-----2-----2-----2---|
-----2------------------------|--0-------------------------|--3-----------0------------|


                                            ^                    ^                    
  E  E  E  S  S E  E  E  S S    E  E  E  E  E  E  E  E     E  E  E  E  E  E  E  S  S  
--0--------3p-2-0----------0-|--------------------------|----------------------------|
--2-----2-------------2--3---|--3-----0-----------------|--------0-------------------|
-----------------------------|--0-----------2-----------|--------0-----------0--2p-0-|
-----------------------------|--------2-----4-----0-----|--2-----2-----4-------------|
--4--0----------4--0---------|--3-----3--------0-----0--|--2--2-----2-----2--2-------|
-----------------------------|-----3-----3--------------|--0-----------0-------------|


        ^                                    ^                           ^            
  E  E  E  E  E  E  E  S  S    E  E  E  S  S E  E  E  S S    E  E  E  E  E  E  E  E   
----------------------------|--0--------3p-2-0----------0-|--------------------------|
--------0-------------------|--------2-------------2--3---|--3-----0-----------------|
--------0-----------0--2h-4-|--2--------------------------|--------0-----2-----------|
--0-----2-----4-------------|-----------------------------|--------2-----4-----0-----|
--2--2-----2-----2--2-------|--4--0----------4--0---------|--3-----3--------0-----0--|
--0-----------0-------------|-----------------------------|-----3-----3--------------|


                    ^                                                     ^              
  E  E  E  E  E  E  E  S  S    E  E  E  E  E  E  E  S  S    E  E  E  S  S E  E  E  S  S  
----------------------------|----------------------------|--0--------3p-2-0-------------|
--------0-------------------|--3-----0-------------------|--------2-------------2--3h-5-|
--------0-----------0--2p-0-|--------------------0--2h-4-|--2---------------------------|
--2-----2-----4-------------|--------2-----4-------------|------------------------------|
--2--2-----2-----2--2-------|--2--2-----2-----2--2-------|--4--0----------4--0----------|
--0-----------0-------------|--3-------------------------|------------------------------|


        ^       ^                          ^                                                  
  E  E  Q       E  E  E  E  E  E  E  E     E  E  E  Q    E  E  S S    E  E  E  Q    E  E  E   
-------------|--0-----------------------|--0----------------2--0---|-------------------------|
--0-----3----|--0-----------------------|--0---------------------3-|----------------0--0--3--|
--------2----|--0-----------0-----------|----------------0---------|--------0--2-------------|
--0-----4----|--------2--4-----2--------|--------2--4--------------|--0--0-------------------|
--2-----2----|-----2--------------2-----|-----2--------------------|--2----------------------|
-----2-------|--0--------------------3--|--3-----------------------|--3----------------------|


                                                              ^                        
   E   E  E  E  E  E  E  S  S     Q     S S S S Q    E  E     E  E  E  Q    E  E  S S  
------------------------------|----------------------------|-------------------2--0---|
------------------------------|----------------------------|------------------------3-|
----------------------0--2p-0-|----------------------------|--0-------------0---------|
-------------------2----------|-----------------0----0--0--|--2-----2--4--------------|
---0------0--2--3-------------|---3-----3-3-3-3------------|--2--2--------------------|
--(0)--0----------------------|--(0)------------2----------|--0-----------------------|


  ^                          ^                                                     
  E  E  E  Q    E  E  E      E   E  E  E  E  E  E  S  S    Q    E  E  E  E  E  E   
-------------------------|------------------------------|-------------------------|
----------------0--------|------------------------------|-------------------------|
--------0--2-------0-----|----------------------0--2p-0-|-------------------------|
--0--0----------------0--|-------------------2----------|-------------------2--4--|
--2----------------------|---0------0--2--3-------------|--2-------------2--------|
--3----------------------|--(0)--0----------------------|--0----0--2--3-----------|


           ^       ^                ^               ^                        
  E  E  E  Q    E  Q       E  E  E  Q    E  Q       E  E  E  E  E  E  E  E   
------------------------|------------------------|--------------------------|
------------------------|--3---------------------|--3-----------------------|
--0----------------0----|------------------------|--------------2-----------|
--2--------2----2--2----|--4--------0-------4----|--0-----2--4-----4--2--0--|
--3-----0--3-------3----|--2-----2--2----2--2----|-----2--------------------|
-----0----------0-------|-----2------------------|--0-----------0-----------|


  ^        ^                        ^                           ^                     ^             
  E  E  E  Q    E.  E.     E  E  E  Q    E  Q       E  E  E  E  Q    Q       E  E  E  Q    E  Q     
------------------------|------------------------|--2---------------------|------------------------|
--0---------------------|------------------------|------------------------|--3---------------------|
-----------2------------|--0----------------0----|------------------------|--0---------------------|
--0-----0-----------0---|--2--------2----2--2----|-----------0--0---------|-----------2----0--2----|
-----2-----2----2-------|--3-----0--3-------3----|--0-----2-----2----2----|--3-----3----------3----|
--2-----------------2---|-----0------------------|-----2------------------|-----3-----3------------|


  ^                          ^                                    ^              
  E  E  E  E  E  E  E  E     E  E  E  Q    E  E  S  S    E  E  E  Q    E  E  E   
-----------------0-----7--|----------------0----------|-------------------------|
--------------------7-----|--------0------------------|----------------0--------|
--0-----------------4-----|----------------0----------|--------0--2-------0-----|
--1-----------4-----------|--2-----2--4-------4--2p-0-|--0--0----------------0--|
--2-----2--4--2-----------|--2--2---------------------|--2----------------------|
-----2--------------------|--3------------------------|--3--------3-------------|


  ^                                                      ^                         
  E  E  E  E  E  E  E  S S    Q    S S S S Q    E  E     E  E  E  Q    E  E  S  S  
---------------------------|--------------------------|----------------0----------|
--1------------------------|--1------------3-------3--|--------0------------------|
--2-----------------0------|---------------2----------|----------------0----------|
--2--------------2---------|--2------------0----0-----|--2-----2--4-------4--2p-0-|
--------0--2--3--------0---|--3----3-3-3-3------------|-----2---------------------|
-----0-------------------3-|--------------------2-----|--3------------------------|


           ^                ^                           ^                       
  E  E  E  Q    E  E  E     E  E  E  E  E  E  E  S S    Q    E  E  E  E  E  E   
-------------------------|---------------------------|--0----------------0-----|
----------------0--------|--1------------------------|--0-------------------0--|
--------0--2-------0-----|--2-----------------0------|--0----------0-----------|
-----0----------------0--|--2--------------2---------|--2----2--------2--------|
--2----------------------|--0-----0--2--3--------0---|--2-------2--------------|
--3--------3-------------|-----0-------------------3-|--0----------------------|


    Slow                
    ^                   
    W                   
--(12)----------------||
--(12)----------------||
--(12)----------------||
----------------------||
----------------------||
---(0)----------------||




Legend
---------------
W - whole
H - half
Q - quarter
E - 8th
S - 16th
. - note dotted
L - tied note
(n) - ghost note
h - hammer on
p - pull off
^ - brush up

6 comments on Grief and Sorrow (Hokage's funeral)

Erratum : last bar is :

Erratum :

last bar is :

^
|--12-----------------||
|--12-----------------||
|--12-----------------||
|--14-----------------||
|---------------------||
|---------------------||

Edited. If you want the

Edited. If you want the download link / GP5 and such to be correct, please post an update with the corrected files :-)

Well finally I m going to

Well finally I m going to continue modifying about this tab because now I see a lot of improvement possibilities which I didn't think before. I post it on the submission forum when it's done.

Capo in fifth?

Capo in fifth?

yep indeed

yep indeed

Updated & I added "capo 5th"

Updated & I added "capo 5th" to tune the tab with original soundtrack