Login or Register to remove this ad. | Advertise Here

Despair (Naruto Shippuuden) Guitar Tab

Submitted: Sep 17, 2012 by Sevensquared

2.5
Average: 2.5 (4 votes)
Download | Listen
Game: Naruto Shippuuden
Composer(s): Yasuharu Takanashi
Style: Fingerstyle, Transcription
Series: Naruto

This song is also called Sasori's Theme

AutoScroll: Slow | Medium | Fast
Despair aka Sasori's theme by Sevensquared

Explanation:
-The 0 on the D string are for the Violins in the background, those notes are played very
 softly and quiet
-The part from measure 2 to 7 is the choir intro
-The high notes from measure 12 to end are the violins/flutes
-The lower notes from measure 9 to 23 are the Guqin(I believe it was played with this)
-L=Let Ring until here, s=slide

      W      E H E Q    Q Q Q Q      Q H.     W      Q E H E    Q Q  Q Q         W
E5|--------|-1s7-L-5--|-L-5-0-2----|-0----|-------|----1s7-L--|-5-8--7-3--|------L-----|
B4|--------|-2s8-L-7--|-7-L-8-3----|-8-3--|---L---|----2s8-L--|-7-10-8-5--|------L-----|
G4|--------|----------|------------|---4--|---L---|-----------|--------4--|------L-----|
D4|---0----|-0-----L--|-0-L-0------|-L-0--|---0---|--0-----L--|-0-L--0-L--|------0-----|
A3|--------|----------|------------|------|-------|-----------|-----------|------------|
E3|--------|----------|------------|------|-------|-----------|-----------|------------|

    H Q. E    Q H Q    E Q. H    Q E Q E Q   E E Q Q. E   Q Q. Q.   Q Q. Q.  E Q. Q. E
E5|---------|--------|---------|-----------|-7-L--------|---------|--------|------3--7-|
B4|---------|--------|---------|---7---L-8-|-----7------|-L-7--10-|-8-L----|---7-------|
G4|---------|--------|---------|-----------|------------|---------|--------|-----------|
D4|-0-2--9--|-L-7-2--|-L-9--4--|-7-L-9-L-7-|-L-9-L----9-|-L-4--9--|---7--2-|-L-7--2--9-|
A3|---------|--------|---------|-----------|-------5----|---------|--------|-----------|
E3|---------|--------|---------|-----------|------------|---------|-8------|-----------|

    Q Q. Q.   Q.  Q. Q   E Q. Q. E   Q  Q.  Q.   E  E  E. E. E    E. E. E  E  E E  E
E5|-L-------|-10--12-3-|-L-5--0----|-----------|----L--14-15-14-|-15-14-L--12-L-10-L-|
B4|---7--L--|----------|-----------|-----------|----------------|--------------------|
G4|---------|--------2-|-L-4--2--9-|-9--10--9--|----------------|--------------------|
D4|-9-5--9--|-10--9----|-----------|-----------|-14-12----------|----------10-9-10-9-|
A3|---------|----------|-----------|-----------|-------15-------|-14-15-14-----------|
E3|---------|----------|-----------|-----------|----------------|--------------------|

    Q Q H   E. E. E  E. Q  S  Q  Q  Q. E   S E. E E E Q E  Q H. E
E5|-7-----|-14-15-14-15-14-L|-12-10-7--7-|-L-8--7-8-7-5-3|-L-2--L-|
B4|-------|-----------------|------------|---------------|--------|
G4|-------|-----------------|------------|---------------|--------|
D4|-5-7-2-|-----------------|------------|---------------|--------|
A3|-------|-----------------|------------|---------------|--------|
E3|-------|-----------------|------------|---------------|--------|