Login or Register to remove this ad. | Advertise Here

Stronghold (Might & Magic: Heroes VI) Guitar Tab

Submitted: Nov 08, 2011 by Bhael

5
Average: 5 (1 vote)
Download | Listen
Game: Might & Magic: Heroes VI
Composer(s): Paul Anthony Romero
Style: Arrangement, Fingerstyle, Natural harmonics

Click here for a video example.

AutoScroll: Slow | Medium | Fast
                                  Stronghold                                    
                          Might and Magic: Heroes VI
                             Paul Anthony Romero
 (Capo 1)



     E  E  E  E  E  E  E  E     E  E  E   E    E    E   E  E   
E||--3-----------2--------0--|-----------------------------0--|
B||--------0-----------------|--3-----2-----------------3-----|
G||-----0-----0-----0--------|-----0----------(4)-------------|
D||--------------------------|--0--------(5)-------(5)--------|
A||--------------------2-----|--------------------------------|
D||--2-----------5-----------|--------------------------------|


  E  E  E  E  E  E  E  E     E  E  E   E    E    E   E  E   
--2-----------0-----------|--------------------------------|
-----------------------3--|--2-----0-----------------2--3--|
--------4-----------4-----|----------------(4)-------------|
-----4-----4-----4--------|-----4-----(4)-------(4)--------|
--------2-----------------|--5-----------------------------|
--0-----------------------|--------------------------------|


  ^                                                   
  E  E  E  E  E  E  E  E     E  E  E  E  E  E  E  E   
--0-----------------------|--------------------------|
--------------3--------2--|--0-----------------0--2--|
--------0-----------0-----|--------2-----------------|
-----2-----2-----2--------|-----2--------2-----------|
--4-----------------------|--0--------4-----4--------|
--------------------------|--------------------------|


                      NH                               ^                        
  E  E  E  E  Q       Q       Q    Q    E  E  E  E     E  E  E  E  E  E  E  E   
---------------------------|---------------------2--|--3-----------2--------0--|
--3--2--0-----0------------|---------------3--5-----|--0--------0--------------|
-----------2---------------|------------------------|--0-----0-----------------|
-------------------<>12----|------------4-----------|-----2--------------2-----|
--2------------------------|-------5----------------|--4--------------2--------|
---------------------------|--0---------------------|--------------------------|


  ^                                                   
  E  E  E  E  E  E  E  E     E  E  E  E  E  E  E  E   
-----------------------0--|--2-----------------------|
--------------------------|-----------3--0-----------|
--7-----6-----------7-----|--------------------------|
--4--------------4--------|--------4-----------0-----|
--4--4--------4-----------|-----5-----------2-----2--|
--4--------4--------------|--0-----------------------|


                             ^                        
  E  E  E  E  E  E  E  E     E  E  E  E  E  E  E  E   
--2-----------------------|--0-----------------------|
-----------3--0--------0--|--0-----------3--------2--|
--------------------------|--0--------0--------0-----|
--------4-----------4-----|--------2--------2--------|
-----5-----------5--------|-----2--------------------|
--0-----------------------|--2-----------------------|


  ^                                                                             
  E  E  E  E  E  E  E  E     E  E  E  E  E  E  E  E     E  E  E  E  E  E  Q     
--------------------------|--------------------------|--------------2-----7----|
--0--------------------2--|--3--2--0-----0-----------|--------3----------------|
--------2-----------4-----|-----------2--------------|-------------------------|
-----2--------2-----------|--------4-----------4-----|-----0-----0-----0-------|
--0--------4-----4--------|--2--------------5-----5--|-------------------------|
--------------------------|--------------------------|--0----------------------|


                             ^                        
  E  E  E  E  E  E  E  E     E  E  E  E  E  E  E  E   
--8-----------7--------5--|--3-----2-----------3--5--|
-----------------4--------|--4--------------4--------|
--------------4-----4-----|--------------4-----------|
-----------4--------------|-----4-----4--------------|
--6-----6-----------------|--2-----------------------|
-----4--------------------|--------------------------|


  ^                                                   
  E  E  E  E  E  E  E  E     E  E  E  E  E  E  E  E   
--7-----------0-----------|--7--------3--0-----------|
-----------8-----0--------|--------------------0-----|
--------0-----------0-----|--------0--------------0--|
--------------------------|-----2-----------2--------|
-----7-----------------7--|--------------------------|
--5-----------------------|--2-----------------------|


  ^                                                   
  E  E  E  E  E  E  E  E     E  E  E  E  E  E  E  E   
--5-----------3--------2--|--0-----------------0--2--|
--------------1-----------|--------3-----------------|
--0--------2-----2--------|-----------------2--------|
--------------------2-----|--0-----------4-----------|
--3-----3-----------------|-----0-----5--------------|
-----5--------------------|--0-----------------------|


  E  E  E  E  E  E  E  E     E  E  E  E  E  E  E  E   
--3--2--0-----0-----------|-----------------------0--|
-----------3--0-----------|--------------------0-----|
-----------------0--------|--0-----------------------|
--2-----------------2-----|-----4--2--0--2-----------|
--2--------------------2--|-----------------2--------|
--2-----------------------|--2-----------------------|


  ^                                                   
  E  E  E  E  E  E  E  E     E  E  E  E  E  E  E  E   
--8-----------7--------5--|-----------------------5--|
--5-----5-----------5-----|--8-----7-----------8-----|
--5--5-----5-----5--------|--------------------------|
--------------------------|--------------4-----------|
--0-----------------------|-----4-----4-----4--------|
--------------------------|--4-----------------------|


  E  E  E  E  E  E  E  E     E  E  E  E  E  E  E  E   
--7-----------5-----------|--------0-----------2--3--|
-----0-----------------8--|--7-----------0-----------|
--------0--------0--------|-----------0-----0--------|
--------------------------|-----0--------------------|
-----------7--------7-----|--------------------------|
--5-----------------------|--5-----------------------|


                             |--3--|                       
  E  E  E  E  E  E  E  E     S  S  S E  E  E  E  E  E  E   
--5-----------3--------2--|--0h-2p-0----------------0--2--|
--------------------1-----|-------------3-----------------|
--------0--------0--------|----------2-----2-----2--------|
-----2-----2--------------|--0----------------0-----------|
--3-----------------------|-------------------------------|
--------------------------|-------------------------------|


                                  ^     ^                            
  E  E  E  E  H           Q    E  E  E  Q.        W                  
--3--2--0-----0--------|--L-------------0------|--L----------------||
-----------3-----------|-------3--2--3--0------|--L----------------||
-----------------------|----------2-----0------|--L----------------||
--------------2--------|----------2------------|-------------------||
--------2--------------|----------0------------|-------------------||
--2--------------------|----------------2------|--L----------------||




Duration Legend
---------------
W - whole
H - half
Q - quarter
E - 8th
S - 16th
T - 32nd
X - 64th
. - note dotted
|-n-|  - n-tuplets


Tablature Legend
----------------
L - tied note
x - dead note
g - grace note
(n) - ghost note
> - accentuded note
NH - natural harmonic
AH - artificial harmonic
TH - tapped harmonic
SH - semi harmonic
PH - pitch harmonic
h - hammer on
p - pull off
b - bend
br - bendRelease
pb - preBend
pbr - preBendRelease
brb - bendReleaseBend
\n/ - tremolo bar dip
\n - tremolo bar dive
-/n - tremolo bar Release up
/n\ - tremolo bar inverted dip
/n - tremolo bar return
-\n - tremolo bar Release down
S - shift slide
s - legato slide
/ -  slide into from below or out of upwards
\ -  slide into from above or out of downwards
~ - vibrato
W - wide vibrato
tr - trill
TP - tremolo picking
T - tapping
S - slap
P - pop
< - fade in
^ - brush up
v - brush down

1 comment on Stronghold

well done !

5

I really need more training to play it decently but i like it. Thanks.