Login or Register to remove this ad. | Advertise Here

Game Start (Metroid) Guitar Tab

Submitted: Jan 15, 2010 by LTRobson (Last updated: Jan 16, 2010)

4.5
Average: 4.5 (2 votes)
Download | Listen
Game: Metroid
Composer(s): Hirokazu Tanaka
Style: Fingerstyle, Transcription
Series: Metroid

AutoScroll: Slow | Medium | Fast
Metroid - Game Start (NES)
Tabbed by LTRobson 16/06/07

Standard tuning

|-3---3---3---3---5---5---5---5-----------------------------------|
|-3---3---3---3---6---6---6---6---6---6---6---6---5---5---5---5---|
|---5---5---5---5---5---5---5---5-7---7---7---7---5---5---5---5---|
|-----------------------------------8---8---8---8---5---5---5---5-|
|-----------------------------------------------------------------|
|-----------------------------------------------------------------|

|-----------------------------------------------------------------|
|-3---3---3---3---3---3---3---3---3---3---3---3---3---3---3---3---|
|-2---2---2---2---2---2---2---2---2---2---2---2---2---2---2---2---|
|---2---2---2---2---4---4---4---4---4---4---4---4---4---4---4---4-|
|-----------------------------------------------------------------|
|-----------------------------------------------------------------|

Strumming version
|-3---------------5-----------------------------------------------|
|-3---------------6---------------6---------------5---------------|
|-5---------------5---------------7---------------5---------------|
|-----------------0---------------8---------------5---------------|
|-6-----------------------------------------------0---------------|
|---------------------------------6-------------------------------|

|-----------------------------------------------------------------|
|-3---------------3-----------------------------------------------|
|-2---------------2-----------------------------------------------|
|-2---------------4-----------------------------------------------|
|-5---------------5-----------------------------------------------|
|-----------------------------------------------------------------|